PrimaNota.ru - самый крупный в мире бесплатный архив песенных текстов, аккордов, табулатур и нот


Afterhours - Pop Una Canzone Pop - таба, видео

Регистрация Запомнить меня
Войти через:  Facebook Google Twitter Vk Yandex Mail.ru

Afterhours - Pop Una Canzone Pop - таба, видео

Печатать
Просмотров: 83
AFTERHOURS

POP (UNA CANZONE POP)
tabbed by dan (yellowledbetter_69@hotmail.co.uk)
Standard tuning

|---3--3---2--2---3--3--|               |-----------------|
|---0--0---3--3---3--3--|               |-----------------|
|---0--0---2--2---0--0--|               |--9vvvvvvvvvvvvvvv--|
|---0--0---0--0---2--2--|               |-----------------|
|---2--2----------3--3--|               |-----------------|
|---3--3----------------| x4            |-----------------|
guitar 1 (doubled w/ another guitar)          guitar 2 feedback over intro (first two bars)

|---3--3--2---2---3--3--|
|---0--0--3---3---3--3--|
|---0--0--2h4-4---0--0--|
|---0--0--0---0---2--2--|
|---2--2----------3--3--|
|---3--3----------------|
guitar 2   2nd 2 bars of intro      x2

|---3--3--2--2---3--3------------------------|
|---0--0--3--3---3--3------------------------|
|---0--0--2--2---0--0------------------------|
|---0--0--0--0---2--2------------------------|
|---2--2---------3--3---2-2-2-2-2-2-2-2-2-2--|
|---3--3----------------0-0-0-0-0-0-0-0-0-0--|
guitar 1   verses    PM|-------------------|

|---3--3--2---2--3--3------------------------|
|---0--0--3---3--3--3------------------------|
|---0--0--2h4-4--0--0------------------------|
|---0--0---------2--2------------------------|
|---2--2---------3--3---2-2-2-2-2-2-2-2-2-2--|
|---3--3----------------0-0-0-0-0-0-0-0-0-0--|
guitar 2 verses      PM|--------------------|

|---3--3--2---2---------3---3--|
|---0--0--3---3---2--2--3---3--|
|---0--0--2---2---2--2--0---0--|
|---0--0--0---0---2--2--2---2--|
|---2--2----------0--0--3---3--|
|---3--3-----------------------|
guitars 1 and 2 pre-chorus

Both guitars play the (guitar 1 part) intro for chorus
End choruses 1 and 2 with same guitar part as played for pre-chorus

|-----------------------------------------------|
|-----------------------------------------------|
|--2\---/4\---/5\---/7\----/2\---/4\---/5\---/7\-|
|-----------------------------------------------|
|-----------------------------------------------|
|-----------------------------------------------|
solo            guitar 1 just hits A chord for this bar

|--------------------------------------------|
|--12----------------------------------------|
|--12---------9/-\---------------------------|
|---*--------------------------10vvvvvv------|
|--------------------------------------------|
|--------------------------------------------|
|-----------------/////---\\\\\\-------------|
solo continued    *=trem pick         guitar 1 plays intro

|--------------------------------------------------------------|
|--------------------------------------------------------------|
|--4-4-4-4-4-x-x-x-x--11-11-11---9--9--9--9--9--9--9--9--9--9--|
|--5-5-5-5-5-x-x-x-x--12-12-12--10-10-10-10-10-10-10-10-10-10--|
|--5-5-5-5-5-x-x-x-x--12-12-12--10-10-10-10-10-10-10-10-10-10--|
|--3-3-3-3-3-x-x-x-x--10-10-10---8--8--8--8--8--8--8--8--8--8--|
guitars 1 and 2    (awesome guitar break)

Guitars on use fade-in notes for verse 3  (just G  D C)

For end of chorus 3, play the pre-chorus part once, then verse parts but without pauses

outro is same as guitar 1 intro, let feedback, end.

any requests, suggestions, corrections e-mail me at yellowledbetter_69@hotmail.co.uk

Добавлено: 28.10.2013
Другие материалы по этой песне:
  • Аккорды и текст

Страница создана 28.10.2013
http://primanota.ru/afterhours/pop-una-canzone-pop-chords.htm
Привет, Гость.
Предлагаем пройти революционный курс по гитаре.
Подарок от PrimaNota.Ru, забирай!