PrimaNota.ru - самый крупный в мире бесплатный архив песенных текстов, аккордов, табулатур и нот


Afterhours - Plastilina - текст песни, таба, видео

Регистрация Запомнить меня
Войти через:  Facebook Google Twitter Vk Yandex Mail.ru

Afterhours - Plastilina - текст песни, таба, видео

Печатать
Просмотров: 95
AFTERHOURS
PLASTILINA

tabbed by dan (yellowledbetter_69@hotmail.co.uk)

standard tuning

INTRO ACOUSTIC
|--------------------------------|
|--------------------------------|
|--------------------------------|
|--9--9-11--9--11-10-10-10-10-10-|
|--7--7--7--7---7-10-10-10-10-10-|
|--0--0--0---------8--8--8--8--8-|
PLAY 4 TIMES

ELECTRIC W/ CLEAN TONE (MANUEL) PLAY FOR ALL VERSES LOOSELY
|------------------------------------------------|
|------------------------------------------------|
|------------------------------------------------|
|--9--9---9---9---9-10-10-10-10---9---9---9---9--|
|--7--7-------------10-10-10-10------------------|
|--0--0--10--10--10--8--8--8--8--10--10--10--10--|

G2 XABIER DURING VERSES CLEAN TONE
|------------------------------------------------------------|
|------------------------------------------------------------|
|------------------------------------------------------------|
|-------5---7---5-----5vvvvv-----------5---7---5-----7--b--9--|
|---/7-------------7--------------/7-------------7-----------|
|------------------------------------------------------------|

BOTH GUITARS CHORUS:
|--10--10--11--11--12--12--5--5--|----------------------------------|
|--10--10--11--11--12--12--5--5--|----------------------------------|
|--11--11--12--12--13--13--6--6--|----------------------------------|
|--12--12--13--13--14--14--7--7--|--9-9-9-9-9-9-9-9-9-9-9-9-9-9-9-9-|
|--12--12--13--13--14--14--7--7--|--9-9-9-9-9-9-9-9-9-9-9-9-9-9-9-9-|
|--10--10--11--11--12--12--5--5--|--7-7-7-7-7-7-7-7-7-7-7-7-7-7-7-7-|
      PLAY 3 TIMES

BACK TO VERSE

GUITAR SOLO  (GUITAR 1 PLAYS VERSE BUT W/ DISTORTION)
|------------------------------------------------
|--------------15-\-10--10-/-12-\-8--------------
|--12--/--16--------------------------7-/-9-\-7--
|--------------12-\--7---7-/--9-\-5--------------
|--10--/--14--------------------------5-/-7-\-5--
|------------------------------------------------

|-----------------------
|--/17vvvvv17vvvvv--------
|-----------------------
|--/14vvvvv14vvvvv--------
|-----------------------
|-----------------------
after that just make a lot of random slide noises for rest of solo

after 3rd chorus Xabier adds a fill which is this 4 times
|----------------------|
|----------------------|
|----------------------|
|----9vvvvvvvvvvvvvvvvv\--|
|----7vvvvvvvvvvvvvvvvv\--|
|----------------------|

outro:
|------------------------------------|
|------------------------------------|
|-------11-11-11--12--12--12--14--14-|
|--9--9------------------------------|
|--7--7--9--9--9--10--10--10--12--12-|
|--0--0------------------------------|
     play 3 times, then:
|-------------------------------------|
|-------------------------------------|
|--19--19--19--19--19--19--19--19--\--|
|----------------------------------\--|
|--17--17--17--17--17--17--17--17--\--|
|----------------------------------\--|

then this riff:
|---------------------------------------|
|---------------------------------------|
|--2--0--4--0----0------0---0---0---2---|
|-------------4-------------------------|
|---------------------------------------|
|---------------------------------------|
                 play 4 times
play this over above riff on fourth time:
|---------------------------------------17--17--17-17-------------17--|
|------15--15--15--15-------------------------------------------------|
|---------------------14b15--14b15-14-----------------14--14--14------|
|---------------------------------------------------------------------|
|---------------------------------------------------------------------|
|---------------------------------------------------------------------|

after this, both guitars play verse chords with distortion 4 times, then play E and slide up 
fretboard making a lot of noise until end.
that's about it. any comments, suggestions etc. email me at yellowledbetter_69@hotmail.co.uk
check out my other afterhours tabs.
Добавлено: 11.07.2013
Другие материалы по этой песне:
  • Аккорды и текст

Страница создана 22.02.2012
http://primanota.ru/afterhours/plastilina-chords.htm
Привет, Гость.
Предлагаем пройти революционный курс по гитаре.
Подарок от PrimaNota.Ru, забирай!