PrimaNota.ru - самый крупный в мире бесплатный архив песенных текстов, аккордов, табулатур и нот


Afterhours - Elymania - текст песни, таба, видео

Регистрация Запомнить меня
Войти через:  Facebook Google Twitter Vk Yandex Mail.ru

Afterhours - Elymania - текст песни, таба, видео

Печатать
Просмотров: 106
Afterhours: Elymania

from "Hai paura del buio?"

tabbed by Damiano Fassari


intro(x4):

e|--------------------------------------------|
B|--------------------------------------------|
G|-8-8-8-8--11-11-11-11-----------------------|
D|-8-8-8-8--11-11-11-11--11-11-11-11--9-9-9-9-|
A|-6-6-6-6---9--9--9--9--11-11-11-11--9-9-9-9-|
E|-6-6-6-6---9--9--9--9---9--9--9--9--7-7-7-7-|

verse = intro

chorus:

|----------------------------------|
|----------------------------------|
|-8-8-8--11-11-11------------------|
|-8-8-8--11-11-11--11-11-11--9-9-9-|
|-6-6-6---9--9--9--11-11-11--9-9-9-|
|-6-6-6---9--9--9---9--9--9--7-7-7-|

bridge:

|------------------------------------|
|------------------------------------|
|-8-8-8-8--------------------1-1-1-1-|
|-8-8-8-8--9-9-9-9--6-6-6-6--2-2-2-2-|
|-6-6-6-6--9-9-9-9--6-6-6-6--2-2-2-2-|
|-6-6-6-6--7-7-7-7--4-4-4-4--0-0-0-0-|

riff 1:

|----------------------------------|
|----------------------------------|
|------------------1-1-1-1-1-1-1-1-|
|-6-6-6-6-6-6-6-6--2-2-2-2-2-2-2-2-|
|-6-6-6-6-6-6-6-6--2-2-2-2-2-2-2-2-|
|-4-4-4-4-4-4-4-4--0-0-0-0-0-0-0-0-|

order:

-intro
-verse
-chorus
-bridge
-verse
-chorus
-bridge
-riff_1
-strofa
-chorus
-bridge
-riff_1
Добавлено: 02.12.2013
Другие материалы по этой песне:
  • Аккорды и текст

Страница создана 28.02.2012
http://primanota.ru/afterhours/elymania-chords.htm
Привет, Гость.
Предлагаем пройти революционный курс по гитаре.
Подарок от PrimaNota.Ru, забирай!