PrimaNota.ru - самый крупный в мире бесплатный архив песенных текстов, аккордов, табулатур и нот


Afterhours - Carne Fresca - текст песни, таба, видео

Регистрация Запомнить меня
Войти через:  Facebook Google Twitter Vk Yandex Mail.ru

Afterhours - Carne Fresca - текст песни, таба, видео

Печатать
Просмотров: 177
Уроки эстрадного вокала в Санкт-Петербурге
		   Afterhours - Carne Fresca - (Ballata per piccole iene)


strofa
|---------------------------------------|
|---------------------------------------|
|---------------------------------------|
|----------9-----------------9----------|
|---10-9-------9-7----9-10------9h10p9--|
|-0------0---0------0------0---0--------|

variazione (...non guardare mai giù)
|-----------------------------------------|
|-----------------------------------------|
|-----------------------------------------|
|----------10-----------------10----------|
|---10-9--------9-7----9-10-------9h10p9--|
|-0------0----0------0------0----0--------|


    LAm       DO9

..e tutto è tranquillo



by: adedip83@tin.it	     
Добавлено: 05.06.2013
Другие материалы по этой песне:
  • Аккорды и текст

Страница создана 28.03.2012
http://primanota.ru/afterhours/carne-fresca-chords.htm
Привет, Гость.
Предлагаем пройти революционный курс по гитаре.
Подарок от PrimaNota.Ru, забирай!