PrimaNota.ru - самый крупный в мире бесплатный архив песенных текстов, аккордов, табулатур и нот


Afterhours - Bungee Jumping - текст песни, таба, видео

Регистрация Запомнить меня
Войти через:  Facebook Google Twitter Vk Yandex Mail.ru

Afterhours - Bungee Jumping - текст песни, таба, видео

Печатать
Просмотров: 108
AFTERHOURS

BUNGEE JUMPING

tabbed by dan (yellowledbetter_69@hotmail.co.uk)

standard tuning

|--------------------------------------------|
|--------------------------------------------|
|----------------------------------------9---|
|------10-9---9--9--9--9--9-----12-10--------|
|--0-0------0--0--0--0--0---0-0-------0------|
|--------------------------------------------|
intro

|------------------------------------1-1-1-1-1-1--------------|
|------------------------------------1-1-1-1-1-1---1-1--1-1---|
|-----9---9---9--9\7--7--7--7---7-7\-2-2-2-2-2-2---0-0--0-0---|
|--10--10--10----------0--0--0-------3-3-3-3-3-3---2-2--2-2---|
|------------------------------------3-3-3-3-3-3---3-3--3-3---|
|------------------------------------1-1-1-1-1-1--------------|
intro continued

|---3-3-3-3-3-3-3-3---2-2-2-2-2-2-2-2---|
|---3-3-3-3-3-3-3-3---3-3-3-3-3-3-3-3---|
|---0-0-0-0-0-0-0-0---2-2-2-2-2-2-2-2---|
|---0-0-0-0-0-0-0-0---0-0-0-0-0-0-0-0---|
|---2-2-2-2-2-2-2-2---------------------|
|---3-3-3-3-3-3-3-3---------------------|
intro continued

|------0-0-0-0--3------------0-0-0-0--3----------|
|---1-------------1--1-1---1------------1--------|
|---2-------------2--2-2---2------------2--------|
|---2-------------2--2-2---2------------2--2--2--|
|---0-------------0--0-0---0------------0--0--0--|
|------------------------------------------------|
verse     play loosely

|---1--1--1-1-1-------------------------|
|---1--1--1-1-1-------------------------|
|---2--2--2-2-2----0--0--0--0--0--0-0---|
|---3--3--3-3-3----2--2--2--2--2--2-2---|
|---3--3--3-3-3----2--2--2--2--2--2-2---|
|---1--1--1-1-1----0--0--0--0--0--0-0---|
verse continued

|---------------------------------------------------------------------|
|---------------------------------------------------------------------|
|---4-5--5-5-5--4-4-4-4\2--2-2-2--4-4-4--5-5-5-5-5--7-7-7-7\5-5-5-5---|
|---x-x--x-x-x--x-x-x-x\2--2-2-2--4-4-4--5-5-5-5-5--7-7-7-7\5-5-5-5---|
|---2/3--3-3-3--2-2-2-2\0--0-0-0--2-2-2--3-3-3-3-3--5-5-5-5\3-3-3-3---|
|---------------------------------2-2-2--3-3-3-3-3--5-5-5-5\3-3-3-3---|
chorus    probably not exact, but it sounds ok, there's too much distortion to make it 
clearly

|-------------------------------------------------------------------|
|-------------------------------------------------------------------|
|--5-5-5-5-5-/7-7-7-7\5-5-5-5-5-5-5--4-4-4-4------------------------|
|--5-5-5-5-5-/7-7-7-7\5-5-5-5-5-5-5--4-4-4-4-2-2-2-2-2-2-2-2-2-2----|
|--3-3-3-3-3-/5-5-5-5\3-3-3-3-3-3-3--2-2-2-2-2-2-2-2-2-2-2-2-2-2----|
|--3-3-3-3-3-/5-5-5-5\3-3-3-3-3-3-3--2-2-2-2-0-0-0-0-0-0-0-0-0-0----|
chorus

|---------------------------------------------------------------------|
|---------------------------------------------------------------------|
|---4-5--5-5-5--4-4-4-4\2--2-2-2--4-4-4--5-5-5-5-5--7-7-7-7/9-9-9-9---|
|---x-x--x-x-x--x-x-x-x\2--2-2-2--4-4-4--5-5-5-5-5--7-7-7-7/9-9-9-9---|
|---2/3--3-3-3--2-2-2-2\0--0-0-0--2-2-2--3-3-3-3-3--5-5-5-5/7-7-7-7---|
|---------------------------------2-2-2--3-3-3-3-3--5-5-5-5/7-7-7-7---|
chorus

|-------------------------------------------------------------------|
|-------------------------------------------------------------------|
|--5-5-5-5-5-/7-7-7-7\5-5-5-5-5-5-5--4-4-4-4------------------------|
|--5-5-5-5-5-/7-7-7-7\5-5-5-5-5-5-5--4-4-4-4-2-2-2-2-2-2-2-2-2-2----|
|--3-3-3-3-3-/5-5-5-5\3-3-3-3-3-3-3--2-2-2-2-2-2-2-2-2-2-2-2-2-2----|
|--3-3-3-3-3-/5-5-5-5\3-3-3-3-3-3-3--2-2-2-2-0-0-0-0-0-0-0-0-0-0----|
chorus

verse 2 is mostly the same as verse 1, just strum loosely on the chords.

chorus 2 is same as first, play multiple times.

|--------12-------12-------12-------12-------12----|
|--10-10----10-10----10-10----10-10----10-10-------|
|--------------------------------------------------|
|--------------------------------------------------|
|--------------------------------------------------|
|--------------------------------------------------|
break

|-------------------------------|
|-------------------------------|
|--10\--4/--9---10\--4/--9------|
|--10\--5/--9---10\--5/--9------|
|---8\--3/--7----8\--3/--7------|
|-------------------------------|
break part 2  play loosely

|-----0------0-------0-------0--------0-------0------|
|------12------12------12------12-------12------12---|
|----------------------------------------------------|
|--12-----12------12-------14------14------14--------|
|----------------------------------------------------|
|----------------------------------------------------|
break continued

play break part 2 again.

after that, it's just random noises for a couple of minutes, hardly any guitar (possibly 
guitar).

after break, play inro, then chorus until end.

that's it. the chorus is not as accurate as i would like, but it's as close as i can 
up with.

any suggestions, comments etc email me.
Добавлено: 08.08.2013
Другие материалы по этой песне:
  • Аккорды и текст

Страница создана 30.05.2012
http://primanota.ru/afterhours/bungee-jumping-chords.htm
Привет, Гость.
Предлагаем пройти революционный курс по гитаре.
Подарок от PrimaNota.Ru, забирай!