PrimaNota.ru - самый крупный в мире бесплатный архив песенных текстов, аккордов, табулатур и нот


After The Fire - Der Kommissar - аккорды и текст, таба, видео

Регистрация Запомнить меня
Войти через:  Facebook Google Twitter Vk Yandex Mail.ru

After The Fire - Der Kommissar - аккорды и текст, таба, видео

Печатать
Просмотров: 158
Авторы музыки: Robert Ponger
Авторы текста: Johann Hölzel
Der Kommissar
After The Fire
		   Hi, this my first tab here, My strings were a little flat but it sounds right.
Use heavy distortion for the intro riff and flanger or chorus will sound good for the main riff.

 Intro RiFF:

e |-12--------------------|
B |----9-12----9-------9--|
G |---------12------12----|
D |--------------10-------|
A |-----------------------|
E |-----------------------|

 Repeat 7 Times

This may be more comfortable finguring but I like staying in one area on the frets.

e |-12--------------------|
B |----9-12-7-9-5-7-9-----|
G |-----------------------|
D |-----------------------|
A |-----------------------|
E |-----------------------|

 Main RiFF:

e |------------------------------|
B |------------------------------|
G |------------------------------|
D |-7-7-7-5>6-----------9-7------|
A |-----------7----5>7------10---|
E |------------------------------|

(D) = Distortion

e |------------------------------|
B |------------------------------|
G |------------------------------|
D |-7-7-7-5>6--------------------|
A |-----------7----(D)-5>6-7-(D)-|
E |------------------------------|

Here is another way to do the main riff, and it sounds pretty good but I like the first way I tabbed out better.

e |------------------------------|
B |------------------------------|
G |------------------4-2---------|
D |-7-7-7-5>6----0>2-----5-------|
A |-----------7------------------|
E |------------------------------|

(D) = Distortion

e |------------------------------|
B |------------------------------|
G |------------------(D)-0>1-2---|
D |-7-7-7-5>6--------------------|
A |-----------7------------------|
E |------------------------------|


 Hope This comes of use to someone.

 Thanks,
 TOny     
Добавлено: 07.09.2013
Другие материалы по этой песне:

Страница создана 03.05.2012
http://primanota.ru/after-the-fire/der-kommissar-chords.htm
Привет, Гость.
Предлагаем пройти революционный курс по гитаре.
Подарок от PrimaNota.Ru, забирай!