PrimaNota.ru - самый крупный в мире бесплатный архив песенных текстов, аккордов, табулатур и нот


After The Fall - Ruins - таба, видео

Регистрация Запомнить меня
Войти через:  Facebook Google Twitter Vk Yandex Mail.ru

After The Fall - Ruins - таба, видео

Печатать
Просмотров: 95
Verse:
E|----------------------------------------------------------|
B|----------------------------------------------------------|
G|----------------------------------------------------------|
D|-2---3---7---5---2---3---7---5----------------------------|
A|-2---3---7---3---2---3---7---3----------------------------|
E|-0---1---5---3---0---1---5---3----------------------------|

Chorus:
E|----------------------------------------------------------|
B|----------------------------------------------------------|
G|----------------------------------------------------------|
D|-2---5-4-7-4---2---5-4-7-4--------------------------------|
A|-2---3-2-7-2---2---3-2-7-2--------------------------------|
E|-0---3-2-5-2---0---3-2-5-2--------------------------------|

Verse 2:
E|----------------------------------------------------------|
B|----------------------------------------------------------|
G|-9---7-5-7-4----7-5-7-9----7-5-7-4-5----------------------|
D|-9---7-5-7-4----7-5-7-9----7-5-7-4-5----------------------|
A|-7---5-3-5-2----5-3-5-7----5-3-5-2-3----------------------|
E|----------------------------------------------------------|

Breakdown:
E|----------------------------------------------------------|
B|----------------------------------------------------------|
G|-4---5-7-4---5-7--7-5-7-9---7-5-7-9---7-5-7-4---7-5-7-4---|
D|-4---5-7-4---5-7--7-5-7-9---7-5-7-9---7-5-7-4---7-5-7-4---|
A|-2---3-5-2---3-5--5-3-5-7---5-3-5-7---5-3-5-2---5-3-5-2---|
E|----------------------------------------------------------|

Sequence:
Verse
Chorus
Verse
Chorus (2x)
Verse 2
Breakdown
Verse
Chorus (2x)
Добавлено: 06.09.2013
Другие материалы по этой песне:
  • Аккорды и текст

Страница создана 06.09.2013
http://primanota.ru/after-the-fall/ruins-chords.htm
Привет, Гость.
Предлагаем пройти революционный курс по гитаре.
Подарок от PrimaNota.Ru, забирай!