PrimaNota.ru - самый крупный в мире бесплатный архив песенных текстов, аккордов, табулатур и нот


After The Fall - Mirror Mirror - таба, бас-таба, видео

Регистрация Запомнить меня
Войти через:  Facebook Google Twitter Vk Yandex Mail.ru

After The Fall - Mirror Mirror - таба, бас-таба, видео

Печатать
Просмотров: 175
-----------------------------------------------------------------------
                             Mirror Mirror- After the Fall
-----------------------------------------------------------------------
Tabbed by: Oddballbrandon
Email:Freakyshort1@hotmail.com
FIRST TAB SORRY IF IM WRONG

Tuning: Standard Tuning, Medium-High Distortion
Youll have to mess around with the strumming for a while to get the hang of it, fairly 
song. Thanks !
e|---------------------------------------------------------------------|
B|---------------------------------------------------------------------|
G|-333-3---333-3---3/55-5/777-7-777-7-7777-----------------------------|
D|-333-3---333-3---3/55-5/777-7-777-7-7777-----------------------------|
A|-111-1---111-1---1/33-3/555-5-555-5-5555-----------------------------|
E|---------------------------------------------------------------------|

e|---------------------------------------------------------------------|
B|---------------------------------------------------------------------|
G|---------------------------------------------------------------------|
D|-333-3---333-3---3/55-5/777-7-777-7-7777-----------------------------|
A|-333-3---333-3---3/55-5/777-7-777-7-7777-----------------------------|
E|-111-1---111-1---1/33-3/555-5-555-5-5555-----------------------------|

e|---------------------------------------------------------------------|
B|---------------------------------------------------------------------|
G|-333-3---333-3---3/55-5/777-7-777-7-7777-----------------------------|
D|-333-3---333-3---3/55-5/777-7-777-7-7777-----------------------------|
A|-111-1---111-1---1/33-3/555-5-555-5-5555-----------------------------|
E|---------------------------------------------------------------------|

e|---------------------------------------------------------------------|
B|---------------------------------------------------------------------|
G|---------------------------------------------------------------------|
D|-333-3---333-3---3/55-5/777-7-777-7-7777-----------------------------|
A|-333-3---333-3---3/55-5/777-7-777-7-7777-----------------------------|
E|-111-1---111-1---1/33-3/555-5-555-5-5555-----------------------------|

| /  slide up
| \  slide down
| h  hammer-on
| p  pull-off
| ~  vibrato
| +  harmonic
| x  Mute note
===============================================================================
333-3---333-3---3/55-5/777-7-777-7-7777-|
333-3---333-3---3/55-5/777-7-777-7-7777-|
111-1---111-1---1/33-3/555-5-555-5-5555-|
Добавлено: 17.06.2012
Другие материалы по этой песне:
  • Аккорды и текст

Страница создана 17.06.2012
http://primanota.ru/after-the-fall/mirror-mirror-chords.htm
Привет, Гость.
Предлагаем пройти революционный курс по гитаре.
Подарок от PrimaNota.Ru, забирай!