PrimaNota.ru - самый крупный в мире бесплатный архив песенных текстов, аккордов, табулатур и нот


After The Fall - Fighter - таба, видео

Регистрация Запомнить меня
Войти через:  Facebook Google Twitter Vk Yandex Mail.ru

After The Fall - Fighter - таба, видео

Печатать
Просмотров: 115
The Fighter
After The Fall
Tabbed By: BrentonK
Standard Tuning

This is my first tab so it's pretty basic, you know how it is.
AND I know theres two guitars but i am lazy and only tabbed the main parts as you do. 
me know what you think or if u want complain let me know.
GOOD SONG PRETTY STRAIGHT FOWARD

Intro/Verse
-----------------------------|
-55-77-101010-555-77-101010--|
-----------------------------|             x4
-----------------------------|
-----------------------------|
-----------------------------|


|--1212121212121212-101010-141414----|
|------------------------------------|
|------------------------------------|
|------------------------------------|
|------------------------------------|
|------------------------------------|

-----------------------------------|
-55-77-101010-555-77-101010--------|
-----------------------------------|
-----------------------------------|    x2
-----------------------------------|
-----------------------------------|

Verse Cont.
-----------------------------------|
-55-77-101010-555-77-101010--------|
-----------------------------------|
-----------------------------------|    x2
-----------------------------------|
-----------------------------------|


Chorus
--------------------------------------|
--------------------------------------|
--------------------------------------|
-77777777--44444444-------------------|
-77777777--44444444--7777777777777777-|
-55555555--22222222--7777777777777777-|
---------------------5555555555555555-|


---------------------------------------------|
---------------------------------------------|
---------------------------------------------|
-7777777777777777--5555555555555xxx----------|
-7777777777777777--5555555555555xxx----------|
-5555555555555555--3333333333333xxx----------|

-----------------------------------|
-55-77-101010-555-77-101010--------|
-----------------------------------|
-----------------------------------|    x5
-----------------------------------|
-----------------------------------|


|--1212121212121212-101010-141414--------|
|----------------------------------------|
|----------------------------------------|
|----------------------------------------|    x2
|----------------------------------------|
|----------------------------------------|


-----------------------------------   --------------------------|
-55-77-101010-555-77-101010-------- or------strum---------------|
-----------------------------------   --------------------------|
-----------------------------------   -----77777777-------------|
-----------------------------------   -----77777777-------------|
-----------------------------------   -----55555555-------------|

Chorus
--------------------------------------|
--------------------------------------|
--------------------------------------|
-77777777--44444444-------------------|
-77777777--44444444--7777777777777777-|
-55555555--22222222--7777777777777777-|
---------------------5555555555555555-|


---------------------------------------------|
---------------------------------------------|
---------------------------------------------|
-7777777777777777--5555555555555xxx----------|
-7777777777777777--5555555555555xxx----------|
-5555555555555555--3333333333333xxx----------|

Bridge
---------------------------------------|
---------------------------------------|
---------------------------------------|
--4-4-4444-44-4444---------------------|
--4-4-4444-44-4444--5555555555555555---|
--2-2-2222-22-2222--5555555555555555---|
--------------------3333333333333333---|

--------------------|
--5555555-333-777---|
--------------------| x3
--------------------|
--------------------|
--------------------|


--10-12-10-12-10---------|
-----------------12-10~--|
-------------------------|
-------------------------|
-------------------------|
-------------------------|

--12121212121212121212121212121210--|
------------------------------------|
------------------------------------|  x3
------------------------------------|
------------------------------------|
------------------------------------|

4th time play|12121212121212121212-10-12-10-12-10---|
             ---------------------------------------|
             ---------------------------------------|  x3
             ---------------------------------------|
             ---------------------------------------|
             ---------------------------------------|


Chorus
--------------------------------------|
--------------------------------------|
--------------------------------------|
-77777777--44444444-------------------|
-77777777--44444444--7777777777777777-|
-55555555--22222222--7777777777777777-|
---------------------5555555555555555-|


---------------------------------------------|
---------------------------------------------|
---------------------------------------------|
-7777777777777777--5555555555555xxx----------|
-7777777777777777--5555555555555xxx----------|
-5555555555555555--3333333333333xxx----------|

Outro

--10h12p10h12p10h12~-----|
-------------------------|
-------------------------|
-------------------------|
-------------------------|
-------------------------|

--10h12p10h12p10h12~-----|
-------------------------|
-------------------------|
-------------------------|
-------------------------|
-------------------------|

--10h12p10h12p10------------|
-----------------12p10p8----|
----------------------------|
----------------------------|
----------------------------|
----------------------------|

--10h12p10h12p10h12~-----|
-------------------------|
-------------------------|
-------------------------|
-------------------------|
-------------------------|
Добавлено: 13.05.2012
Другие материалы по этой песне:
  • Аккорды и текст

Страница создана 13.05.2012
http://primanota.ru/after-the-fall/fighter-chords.htm
Привет, Гость.
Предлагаем пройти революционный курс по гитаре.
Подарок от PrimaNota.Ru, забирай!