PrimaNota.ru - самый крупный в мире бесплатный архив песенных текстов, аккордов, табулатур и нот


After The Fall - Double Negative - таба, видео

Регистрация Запомнить меня
Войти через:  Facebook Google Twitter Vk Yandex Mail.ru

After The Fall - Double Negative - таба, видео

Печатать
Просмотров: 153
It's probably played in drop D, but I tabbed it in standard tuning because I'm lazy. 
Just play in order.


E|--------011111111-------------------------011111111-------------------|
B|-3333333333333333-3333333566666666-3333333333333333-3335666655566666--|
G|-2222222222222222-3333333333333333-2222222222222222-3333333333333333--|
D|-0000000000000000-3333333333333333-0000000000000000-3333333333333333--|
A|-0000000000000000------------------0000000000000000-------------------|
E|----------------------------------------------------------------------|


E|---1---0---1---0----------------1---0---1---0-------------------------|
B|----3---3---3---3-3------------3-3---3---3---3-3----------------------|
G|-----------------3----3-33---322--------------3----3-333----------2---|
D|-00--0---0---0---3-5-5--3-5-5--0--0---0---0---3-5-5--333-7777-----0---|
A|-00---0---0---0--1-5----1-5----0---0---0---0--1-5----111-7777-----0---|
E|-------------------3------3---------------------3--------5555---------|
   **

  4x
E|-5-----6--5---------|---------------------------------------------|
B|-6--8--8--6--6---6--|---------------------------------------------|
G|-7--7--7--7--7---7--|---------------------------------------------|
D|-0--0--0--0--x---x--|-7--7--7--7--7-------------------------------|
A|-------------4---5--|-5--5--5--5--5-------------------------------|
E|--------------------|-5--5--5--5--5-------------------------------|


E|------------------------------------------------------------------|
B|------------------------------------------------------------------|
G|--6-7-10---9--------7-3-10---9---------7--3--------7--3-3-3-3-3---|
D|--7-7-7----7----3-7-7-3-7----7---3--7--7--3--3--7--7--3-3-3-3-3---|
A|--4-5-8----7----3-7-5-1-8----7---3--7--5--1--3--7--5--1-1-1-1-1---|
E|----------------1-5--------------1--5--------1--5-----------------|
Добавлено: 10.09.2013
Другие материалы по этой песне:
  • Аккорды и текст

Страница создана 10.09.2013
http://primanota.ru/after-the-fall/double-negative-chords.htm
Привет, Гость.
Предлагаем пройти революционный курс по гитаре.
Подарок от PrimaNota.Ru, забирай!