PrimaNota.ru - самый крупный в мире бесплатный архив песенных текстов, аккордов, табулатур и нот


After The Fall - Destination Uknown - таба, видео

Регистрация Запомнить меня
Войти через:  Facebook Google Twitter Vk Yandex Mail.ru

After The Fall - Destination Uknown - таба, видео

Печатать
Просмотров: 116
Band: After The Fall 
Song: Destination Uknown
Album: Always, Forever, Now
All words by: After The Fall
Tabbed by Ben Downes

Intro Guitar 1 (light Distortion)
e|-----------------------------------------------------|
B|-----------------------------------------------------|
G|-7-7-7-7-7-7-7-7-7-7-7-7-----------------------------|
D|-7-7-7-7-7-7-7-7-7-7-7-7xxxx-5-5-5-5-5-5-5-5-5-5-5-5-|
A|-5-5-5-5-5-5-5-5-5-5-5-5xxxx-5-5-5-5-5-5-5-5-5-5-5-5-|
E|------------------------xxxx-3-3-3-3-3-3-3-3-3-3-3-3-|

Both guitars (Heavy Distortion)
e|-----------------------------------------|
B|-----------------------------------------|
G|-----------------------------------------|
D|-9-9-9-9-5-5-5-5-5-5-5-5-5-5-5-5-4-4-4-4-|
A|-9-9-9-9-5-5-5-5-5-5-5-5-5-5-5-5-4-4-4-4-|
E|-7-7-7-7-3-3-3-3-3-3-3-3-3-3-3-3-2-2-2-2-|

e|--------------------------------------------------------------|
B|--------------------------------------------------------------|
G|--------------------------------------------------------------|
D|-5-5-5-5-5-5-5-5-5-5-5-5-9-9-9-9-4-4-4-4-4-4-4-4-4-4-4-4-x-4--|
A|-5-5-5-5-5-5-5-5-5-5-5-5-9-9-9-9-4-4-4-4-4-4-4-4-4-4-4-4-x-4--|
E|-3-3-3-3-3-3-3-3-3-3-3-3-7-7-7-7-2-2-2-2-2-2-2-2-2-2-2-2-x-2--|

Guitar 1 (Light Distortion)
e|-------------------------|\
B|-7----7----7--7--7-7/8\7-| \
G|-7--x-7--x-7--7--7-7/8\7-|  \
D|-5--x-5--x-5--5--5-5/6\5-|  /{x3}
A|----x----x---------------| /
E|-------------------------|/

e|-------------------|
B|-------------------|
G|-------------------|
D|-xx-4-4-xx-4-4-x-4-|
A|-xx-4-4-xx-4-4-x-4-|
E|-xx-2-2-xx-2-2-x-2-|

e|-----------------|
B|-----------------|
G|-----------------|
D|-4-4-4-4-4-4-4-4-|
A|-4-4-4-4-4-4-4-4-|
E|-2-2-2-2-2-2-2-2-|

   D      A      B
e|---| e|---| e|---|
B|---| B|---| B|---|
G|-7-| G|---| G|---|
D|-7-| D|-7-| D|-9-| 
A|-5-| A|-7-| A|-9-|
E|---| E|-5-| E|-7-|

Chorus
e|----------------------------------|
B|----------------------------------|
G|-7-7-7-7-7-7-7-7------------------|
D|-7-7-7-7-7-7-7-7-7-7-7-7-7-7-7-7--|
A|-5-5-5-5-5-5-5-5-7-7-7-7-7-7-7-7--|
E|-----------------5-5-5-5-5-5-5-5--|

e|----------------------------------|
B|----------------------------------|
G|----------------------------------|
D|-9-9-x-9--x-9-9-x-9-x-12-12-12-12-|
A|-9-9-x-9--x-9-9-x-9-x-12-12-12-12-|
E|-7-7-x-7--x-7-7-x-7-x-10-10-10-10-|

e|------------------------------|
B|------------------------------|
G|------------------------------|
D|-9-9-x-9--x-9-9-x-9-x-9-9-9-9-|
A|-9-9-x-9--x-9-9-x-9-x-9-9-9-9-|
E|-7-7-x-7--x-7-7-x-7-x-7-7-7-7-|

e|----------------------------------|
B|----------------------------------|
G|----------------------------------|
D|-9-9-x-9--x-9-9-x-9-x-12-12-12-12-|
A|-9-9-x-9--x-9-9-x-9-x-12-12-12-12-|
E|-7-7-x-7--x-7-7-x-7-x-10-10-10-10-|

e|------------------------------|
B|------------------------------|
G|------------------------------|
D|-9-9-x-9--x-9-9-x-9-x-5-5-5-5-|
A|-9-9-x-9--x-9-9-x-9-x-5-5-5-5-|
E|-7-7-x-7--x-7-7-x-7-x-3-3-3-3-|

2nd Verse Guitar 1 (Light Distortion)

e|--------------------------------------------------|
B|--------------------------------------------------|
G|--------------------------------------------------|
D|-5-5-5-5-5-5-5-5-5-5-5-5-9-9-9-9-9-9-9-9-9-9-9-9--|
A|-5-5-5-5-5-5-5-5-5-5-5-5-9-9-9-9-9-9-9-9-9-9-9-9--|
E|-3-3-3-3-3-3-3-3-3-3-3-3-7-7-7-7-7-7-7-7-7-7-7-7--|

e|------------------------------|
B|------------------------------|
G|------------------------------|
D|-5-5-5-5-5-5-5-5-5-5-5-5-x-4--|
A|-5-5-5-5-5-5-5-5-5-5-5-5-x-4--|
E|-3-3-3-3-3-3-3-3-3-3-3-3-x-2--|

e|-------------------------|\
B|-7----7----7--7--7-7/8\7-| \
G|-7--x-7--x-7--7--7-7/8\7-|  \
D|-5--x-5--x-5--5--5-5/6\5-|  /{x3}
A|----x----x---------------| /
E|-------------------------|/

e|-------------------|
B|-------------------|
G|-------------------|
D|-xx-4-4-xx-4-4-x-4-|
A|-xx-4-4-xx-4-4-x-4-|
E|-xx-2-2-xx-2-2-x-2-|

e|-----------------|
B|-----------------|
G|-----------------|
D|-4-4-4-4-4-4-4-4-|
A|-4-4-4-4-4-4-4-4-|
E|-2-2-2-2-2-2-2-2-|

Chorus
e|----------------------------------|
B|----------------------------------|
G|-7-7-7-7-7-7-7-7------------------|
D|-7-7-7-7-7-7-7-7-7-7-7-7-7-7-7-7--|
A|-5-5-5-5-5-5-5-5-7-7-7-7-7-7-7-7--|
E|-----------------5-5-5-5-5-5-5-5--|

e|----------------------------------|
B|----------------------------------|
G|----------------------------------|
D|-9-9-x-9--x-9-9-x-9-x-12-12-12-12-|
A|-9-9-x-9--x-9-9-x-9-x-12-12-12-12-|
E|-7-7-x-7--x-7-7-x-7-x-10-10-10-10-|

e|----------------------------------|
B|----------------------------------|
G|----------------------------------|
D|-5-5-5-5-5-5-5-5-7-7-7-7-7-7-7-7--|
A|-5-5-5-5-5-5-5-5-7-7-7-7-7-7-7-7--|
E|-3-3-3-3-3-3-3-3-5-5-5-5-5-5-5-5--|

e|------------------------------|
B|------------------------------|
G|------------------------------|
D|-9-9-x-9--x-9-9-x-9-x-9-9-9-9-|
A|-9-9-x-9--x-9-9-x-9-x-9-9-9-9-|
E|-7-7-x-7--x-7-7-x-7-x-7-7-7-7-|

e|----------------------------------|
B|----------------------------------|
G|-7-7-7-7-7-7-7-7------------------|
D|-7-7-7-7-7-7-7-7-7-7-7-7-7-7-7-7--|
A|-5-5-5-5-5-5-5-5-7-7-7-7-7-7-7-7--|
E|-----------------5-5-5-5-5-5-5-5--|

e|----------------------------------|
B|----------------------------------|
G|----------------------------------|
D|-9-9-x-9--x-9-9-x-9-x-12-12-12-12-|
A|-9-9-x-9--x-9-9-x-9-x-12-12-12-12-|
E|-7-7-x-7--x-7-7-x-7-x-10-10-10-10-|

e|----------------------------------|
B|----------------------------------|
G|----------------------------------|
D|-5-5-5-5-5-5-5-5-7-7-7-7-7-7-7-7--|
A|-5-5-5-5-5-5-5-5-7-7-7-7-7-7-7-7--|
E|-3-3-3-3-3-3-3-3-5-5-5-5-5-5-5-5--|

e|------------------------------|
B|------------------------------|
G|------------------------------|
D|-9-9-x-9--x-9-9-x-9-x-5-5-5-5-|
A|-9-9-x-9--x-9-9-x-9-x-5-5-5-5-|
E|-7-7-x-7--x-7-7-x-7-x-3-3-3-3-|

little solo bit
e|--------------------|
B|-10-10-7-7-5-5-7-7--|x3
G|--------------------|
D|--------------------|
A|--------------------|
E|--------------------|

e|------------------------|
B|-10-10-7-7-12-12-10-10--|x1
G|------------------------|
D|------------------------|
A|------------------------|
E|------------------------|

e|--------------------|
B|-10-10-7-7-5-5-7-7--|x3
G|--------------------|
D|--------------------|
A|--------------------|
E|--------------------|

e|------------------|
B|-5-5-3-3-2-2-3-3--|x2
G|------------------|
D|------------------|
A|------------------|
E|------------------|

e|--------------------|
B|-10-10-7-7-5-5-7-7--|x3
G|--------------------|
D|--------------------|
A|--------------------|
E|--------------------|

e|------------------------|
B|-10-10-7-7-12-12-10-10--|x1
G|------------------------|
D|------------------------|
A|------------------------|
E|------------------------|

e|--------------------|
B|-10-10-7-7-5-5-7-7--|x3
G|--------------------|
D|--------------------|
A|--------------------|
E|--------------------|

e|------------------|
B|-5-5-3-3-2-2-3-3--|x2
G|------------------|
D|------------------|
A|------------------|
E|------------------|

Chorus
e|----------------------------------|
B|----------------------------------|
G|-7-7-7-7-7-7-7-7------------------|
D|-7-7-7-7-7-7-7-7-7-7-7-7-7-7-7-7--|
A|-5-5-5-5-5-5-5-5-7-7-7-7-7-7-7-7--|
E|-----------------5-5-5-5-5-5-5-5--|

e|----------------------------------|
B|----------------------------------|
G|----------------------------------|
D|-9-9-x-9--x-9-9-x-9-x-12-12-12-12-|
A|-9-9-x-9--x-9-9-x-9-x-12-12-12-12-|
E|-7-7-x-7--x-7-7-x-7-x-10-10-10-10-|


e|----------------------------------|
B|----------------------------------|
G|----------------------------------|
D|-5-5-5-5-5-5-5-5-7-7-7-7-7-7-7-7--|
A|-5-5-5-5-5-5-5-5-7-7-7-7-7-7-7-7--|
E|-3-3-3-3-3-3-3-3-5-5-5-5-5-5-5-5--|

e|------------------------------|
B|------------------------------|
G|------------------------------|
D|-9-9-x-9--x-9-9-x-9-x-9-9-9-9-|
A|-9-9-x-9--x-9-9-x-9-x-9-9-9-9-|
E|-7-7-x-7--x-7-7-x-7-x-7-7-7-7-|

e|----------------------------------|
B|----------------------------------|
G|-7-7-7-7-7-7-7-7------------------|
D|-7-7-7-7-7-7-7-7-7-7-7-7-7-7-7-7--|
A|-5-5-5-5-5-5-5-5-7-7-7-7-7-7-7-7--|
E|-----------------5-5-5-5-5-5-5-5--|

e|----------------------------------|
B|----------------------------------|
G|----------------------------------|
D|-9-9-x-9--x-9-9-x-9-x-12-12-12-12-|
A|-9-9-x-9--x-9-9-x-9-x-12-12-12-12-|
E|-7-7-x-7--x-7-7-x-7-x-10-10-10-10-|

e|----------------------------------|
B|----------------------------------|
G|----------------------------------|
D|-5-5-5-5-5-5-5-5-7-7-7-7-7-7-7-7--|
A|-5-5-5-5-5-5-5-5-7-7-7-7-7-7-7-7--|
E|-3-3-3-3-3-3-3-3-5-5-5-5-5-5-5-5--|

e|------------------------------|
B|------------------------------|
G|------------------------------|
D|-9-9-x-9--x-9-9-x-9-x-5-5-5-5-|
A|-9-9-x-9--x-9-9-x-9-x-5-5-5-5-|
E|-7-7-x-7--x-7-7-x-7-x-3-3-3-3-|

Finnish on the last chord of the chorus
Which is B

* Intro x1
* 2nd part intro x1
* 1st Verse x1
* Chorus x2
* 2nd Verse x1
* Chorus x2
* litlle solo bit x2
* Chorus x2
Finnish

Well that's it hope enjoy the song
Good luck and listen to the song
Destination Unknown number 6 off 
After The Fall's new Always, Forever, Now
The timing's pretty accurate by the way.




Добавлено: 24.02.2012
Другие материалы по этой песне:
  • Аккорды и текст

Страница создана 24.02.2012
http://primanota.ru/after-the-fall/destination-uknown-chords.htm
Привет, Гость.
Предлагаем пройти революционный курс по гитаре.
Подарок от PrimaNota.Ru, забирай!