PrimaNota.ru - самый крупный в мире бесплатный архив песенных текстов, аккордов, табулатур и нот


After The Fall - Decapitate - таба, видео

Регистрация Запомнить меня
Войти через:  Facebook Google Twitter Vk Yandex Mail.ru

After The Fall - Decapitate - таба, видео

Печатать
Просмотров: 136
Уроки эстрадного вокала в Санкт-Петербурге
Intro:

E|------331-------0-5-3-1310-10-331------0--------------------------|
B|-111------1310-1-----------------1310-1------------10---10--------|
G|-222----------2-----------2----------2------------2--202--20------|
D|-332-------------------------------------33333333-----------------|
A|-----------------------------------------33333333-----------------|
E|-----------------------------------------11111111-----------------|
                                            *******
Verse:
E|-----------------------------5----5-----------------------|
B|-----------------------5------856-6-----------------------|
G|----------------------5-5-5-5-----5-----------------------|
D|-3---7---3---7---3---7---7-7------7---3-------------------|
A|-3---7---3---7---3----------------8---3-------------------|
E|-1---5---1---5---1--------------------1-------------------|

Chorus 1/Bridge 1:
 2x
E|--------------------|-------------------------------------|
B|--------------------|-------------------------------------|
G|------------45---79-|-------------------------------------|
D|-7-10-5-9-3-45-5-79-|---5----5------3----3----------------|
A|-7-10-5-9-3-23-5-57-|--3----3-323--3----3-323-------------|
E|-5-8--3-7-1----3----|-5----5------5----5------------------|

Chorus 2/Bridge 2
 2x                    4x            2x
E|--------------------|-------------|-----------|-----------|
B|--------------------|-------------|-----------|-----------|
G|---------4545-------|-------------|-22200020--|-22222222--|
D|-7---3---4545-5-6---|----22222222-|-22222222--|-22222222--|
A|-7---3---2323-5-6---|----33300030-|-00000000--|-00000000--|
E|-5---1--------3-4---|-------------|-----------|-----------|
                           ********

Outro:
E|-10010010010030101001001001003010100100100100301000000000003101031-0---|
B|-2---------------0---------------1--------------0------------------1---|
G|-3---------------1---------------0--------------1------------------2---|
D|-------------------------------------------------------------------2---|
A|-----------------------------------------------------------------------|
E|-----------------------------------------------------------------------|

Sequence:
Intro
Verse
Chorus 1
Bridge 1
That last lick from intro
Verse (you might skip the solo part this time, it's kinda hard to play while singing)
Chorus 1 (twice)
Chorus 2
Bridge 2
Chorus 2 (slowly)
Outro
Добавлено: 16.09.2013
Вам также может быть интересно:
Другие материалы по этой песне:
  • Аккорды и текст

Страница создана 16.09.2013
http://primanota.ru/after-the-fall/decapitate-chords.htm
Привет, Гость.
Предлагаем пройти революционный курс по гитаре.
Подарок от PrimaNota.Ru, забирай!