PrimaNota.ru - самый крупный в мире бесплатный архив песенных текстов, аккордов, табулатур и нот


After The Fall - Concrete Boots - аккорды и текст, бас-таба, видео

Регистрация Запомнить меня
Войти через:  Facebook Google Twitter Vk Yandex Mail.ru

After The Fall - Concrete Boots - аккорды и текст, бас-таба, видео

Печатать
Просмотров: 133
Concrete Boots
After The Fall
Band: After The Fall
Song: Concrete Boots
Album: Always Forever Now
All words and music by After The Fall

Intro
e|-------------------------------------|
B|-7--7-7-5-5-5-7-5--7-7-7-5-5--5-7-7b-|
G|-------------------------------------|
D|-------------------------------------|
A|-------------------------------------|
D|-------------------------------------|

A A A G A G A G A

e|----------------------------------------------|
B|-7-7-7-5-5--5-7-5--5-5--7-7-7-5-5--5-7-5-7--7-| 
G|----------------------------------------------|  
D|----------------------------------------------|   
A|----------------------------------------------|    
D|----------------------------------------------|     
                                                       
e|----------------------------------------------|       
B|-7-7-7-5-5--5-7-5--5-5--7-7-7-5-5--5-7-5--5-5-|        
G|----------------------------------------------|        
D|----------------------------------------------|          
A|----------------------------------------------|           
D|----------------------------------------------|            
                                                              
e|-------------------------|                                  
B|-7--7-5--5-7--7-5-5--5-5-|                                  
G|-------------------------|                                 
D|-------------------------|                                
A|-------------------------|                               
D|-------------------------|                               
                                                                  
e|----------------------------------------------|     
B|-7-7-7-5-5--5-7-5--5-5--7-7-7-5-5--5-7-5--5-5-|    
G|----------------------------------------------|   
D|----------------------------------------------|  
A|----------------------------------------------| 
D|----------------------------------------------|

Verse 
Have you ever got that dowards 
Sinking felling
And just a touch of human hands 
Make for helling
He watered down amongst
The crowd, always lost searching
For his own sound

Chorus
e|---------------------------------------------------------------------|
B|---------------------------------------------------------------------|
G|---------------------------------------------------------------------|
D|-8-x-8-x-8-x-8-x-3-x-3-x-3-x-3-x-0-x-0-x-0-x-0-x-10-x-10-x-10-x-10-x-|
A|-8-x-8-x-8-x-8-x-3-x-3-x-3-x-3-x-0-x-0-x-0-x-0-x-10-x-10-x-10-x-10-x-|
D|-8-x-8-x-8-x-8-x-3-x-3-x-3-x-3-x-0-x-0-x-0-x-0-x-10-x-10-x-10-x-10-x-|

e|---------------------------------------------------------------------|
B|---------------------------------------------------------------------|
G|---------------------------------------------------------------------|
D|-8-x-8-x-8-x-8-x-3-x-3-x-3-x-3-x-0-x-0-x-0-x-0-x-10-x-10-x-10-x-10-x-|
A|-8-x-8-x-8-x-8-x-3-x-3-x-3-x-3-x-0-x-0-x-0-x-0-x-10-x-10-x-10-x-10-x-|
D|-8-x-8-x-8-x-8-x-3-x-3-x-3-x-3-x-0-x-0-x-0-x-0-x-10-x-10-x-10-x-10-x-|

e|---|
B|-0-|
G|-0-|
D|-0-|
A|---|
D|---|

These concrete boots he wears
Make it hard to reach the air
These concrete boots he 
Wears
e|-------------------|
B|-------------------|
G|-------------------|
D|-0-0-00-0-00-0-x-0-| palm muted
A|-0-0-00-0-00-0-x-0-|
D|-0-0-00-0-00-0-x-0-|
       **   **
Bb               F        
These concrete boots he wears
  D                    C
Make it hard to reach the air
Bb                        F                      
These concrete boots he Wears
Bb               F
These concrete boots he wears 
D                      C
Make it hard to reach the air
Bb---------------------
These concrete boots he 

Wears
e|-------------------|
B|-------------------|
G|-------------------|
D|-0-0-00-0-00-0-x-0-|
A|-0-0-00-0-00-0-x-0-|
D|-0-0-00-0-00-0-x-0-|
       **   **
Intro
e|-------------------------------------|
B|-7--7-7-5-5-5-7-5--7-7-7-5-5--5-7-7b-|
G|-------------------------------------|
D|-------------------------------------|
A|-------------------------------------|
D|-------------------------------------|

A A A G A G A G A

e|----------------------------------------------|
B|-7-7-7-5-5--5-7-5--5-5--7-7-7-5-5--5-7-5-7--7-| 
G|----------------------------------------------|  
D|----------------------------------------------|   
A|----------------------------------------------|    
D|----------------------------------------------|     
                                                      
e|----------------------------------------------|       
B|-7-7-7-5-5--5-7-5--5-5--7-7-7-5-5--5-7-5--5-5-|        
G|----------------------------------------------|         
D|----------------------------------------------|          
A|----------------------------------------------|           
D|----------------------------------------------|            
                                                             
e|-------------------------|                                  
B|-7--7-5--5-7--7-5-5--5-5-|                                 
G|-------------------------|                               
D|-------------------------|                               
A|-------------------------|                              
D|-------------------------|                              
                                                      
e|----------------------------------------------|     
B|-7-7-7-5-5--5-7-5--5-5--7-7-7-5-5--5-7-5--5-5-|    
G|----------------------------------------------|   
D|----------------------------------------------|  
A|----------------------------------------------| 
D|----------------------------------------------|
2nd Verse
And now all the eyes are
Facing towards the south
Just as narrow words try to
Escape his mouth
The plastered faces are
Painted white, just to keep 
The inside out of his sight

Chorus
e|---------------------------------------------------------------------|
B|---------------------------------------------------------------------|
G|---------------------------------------------------------------------|
D|-8-x-8-x-8-x-8-x-3-x-3-x-3-x-3-x-0-x-0-x-0-x-0-x-10-x-10-x-10-x-10-x-|
A|-8-x-8-x-8-x-8-x-3-x-3-x-3-x-3-x-0-x-0-x-0-x-0-x-10-x-10-x-10-x-10-x-|
D|-8-x-8-x-8-x-8-x-3-x-3-x-3-x-3-x-0-x-0-x-0-x-0-x-10-x-10-x-10-x-10-x-|

e|---------------------------------------------------------------------|
B|---------------------------------------------------------------------|
G|---------------------------------------------------------------------|
D|-8-x-8-x-8-x-8-x-3-x-3-x-3-x-3-x-0-x-0-x-0-x-0-x-10-x-10-x-10-x-10-x-|
A|-8-x-8-x-8-x-8-x-3-x-3-x-3-x-3-x-0-x-0-x-0-x-0-x-10-x-10-x-10-x-10-x-|
D|-8-x-8-x-8-x-8-x-3-x-3-x-3-x-3-x-0-x-0-x-0-x-0-x-10-x-10-x-10-x-10-x-|

These concrete boots he wears
Make it hard to reach the air
These concrete boots he wears
Bb              F        
These concrete boots he wears
  D                    C
Make it hard to reach the air
Bb                       D
These concrete boots he Wears
Bb              F        
These concrete boots he wears
  D                    C
Make it hard to reach the air
Bb---------------------                                              
These concrete boots he 
Wears
e|-------------------|
B|-------------------|
G|-------------------|
D|-0-0-00-0-00-0-x-0-|
A|-0-0-00-0-00-0-x-0-|
D|-0-0-00-0-00-0-x-0-|
       **   **

I don't know the solo as of yet but
When I do I will add it to the tab

Palm muted
e|---------------------------------------------|
B|---------------------------------------------|
G|---------------------------------------------|
D|-88888888-33333333-00000000-1010101010101010-|
A|-88888888-33333333-00000000-1010101010101010-|
D|-88888888-33333333-00000000-1010101010101010-|
   ******** ******** ******** ****************

e|----------------------|
B|----------------------|
D|-88888888-33333333-0--|
A|-88888888-33333333-0--|
D|-88888888-33333333-0--|
   ******** ********
The concrete boots he wears
Make it hard to reach the air
The concrete boots he wears
Bb               F
These concrete boots he wears
D                      C
Make it hard to reach the air
Bb               F
These concrete boots he wears
Bb               F    
These concrete boots he wears
D                      C
Make it hard to reach the air
Bb               F
These concrete boots he wears
Bb F D C
He wears 
Bb   F 
He wears

e|-------------------|
B|-------------------|
G|-------------------|
D|-0-0-00-0-00-0-x-0-|Palm muted
A|-0-0-00-0-00-0-x-0-|
D|-0-0-00-0-00-0-x-0-|
       **   **
Finsh on the open strings D, A, D

If you have any corrections that are 
Neede email them to but I'll think you'll find
That this tab is 99% correct
So good luck and enjoy the song
Oh and listen to the song Concrete Boots
It's no.3 A.K.A number 3 off the new album 
Always Forever Now
So that's it, Enjoy
Добавлено: 07.06.2012
Другие материалы по этой песне:

Страница создана 04.05.2012
http://primanota.ru/after-the-fall/concrete-boots-chords.htm
Привет, Гость.
Предлагаем пройти революционный курс по гитаре.
Подарок от PrimaNota.Ru, забирай!