PrimaNota.ru - самый крупный в мире бесплатный архив песенных текстов, аккордов, табулатур и нот


After Forever - Follow In The Cry - аккорды и текст, таба, видео

Регистрация Запомнить меня
Войти через:  Facebook Google Twitter Vk Yandex Mail.ru

After Forever - Follow In The Cry - аккорды и текст, таба, видео

Печатать
Просмотров: 151
Follow In The Cry
After Forever
Band: After Forever
Album: Prison of Desire
Song: Follow in the Cry
Tabbed by: Martijn Wietsma
Email: dalvanian@yahoo.com
Date: 29-08-2002
 
Tune down to D
h = hammer
p = pick
. = palm mute
~ = hold note for a second
/ = forward slide
 = backward slide
() = not necessary to play)

riff A
d|--------------------------------------------------------|
A|--------------------------------------------------------|
F|---------2h3-2-----------------2h3-2---2----------------|
C|-3h4-3h4-------4-3-----3h4-3h4-------4------------------|
G|--------------------------------------------------------|
D|--------------------------------------------------------|

d|--------------------------------------------------------|
A|---------1h2-1------------------------------------------|
F|-2h3-2h3-------3-------------------2h3-2----------------|
C|------------------1-----1h3-1h3-4--------3--------------|
G|--------------------------------------------------------|
D|--------------------------------------------------------|

Riff B
d|--------------------------------------------------------|
A|--------------------------------------------------------|
F|--------------------------------------------------------|
C|--------------------------------------------------------|
G|-7-7-7-7-7-7--7-7---7-7-7-7--7-7-7-7--------------------|
D|-5-5-5-5-5-5--5-5---5-5-5-5--5-5-5-5--------------------|
   . . . . . .  . .   . . . .  . . . .

d|--------------------------------------------------------|
A|--------------------------------------------------------|
F|--------------------------------------------------------|
C|--------------------------------------------------------|
G|-7-7-7-7-7-7--7-7---7-7-7-7--7-7-7-7--------------------|
D|-5-5-5-5-5-5--5-5---5-5-5-5--5-5-5-5--------------------|
   . . . . . .  . .   . . . .  . . . .

d|--------------------------------------------------------|
A|--------------------------------------------------------|
F|--------------------------------------------------------|
C|--------------------------------------------------------|
G|-7-7-7-7-7-7--7-7---7-7-7-7--7-7-7--7-------------------|
D|-5-5-5-5-5-5--5-5---5-5-5-5--5-5-5--5-------------------|
   . . . . . .  . .   . . . .  . . .

d|--------------------------------------------------------|
A|--------------------------------------------------------|
F|--------------------------------------------------------|
C|--------------------------------------------------------|
G|-7-7-7-7-7-7--7-7---7-7-7-7--7-7-7--7-------------------|
D|-5-5-5-5-5-5--5-5---5-5-5-5--5-5-5--5-------------------|
   . . . . . .  . .   . . . .  . . .
									(2x)
Riff C
d|--------------------------------------------------------|
A|--------------------------------------------------------|
F|--------------------------------------------------------|
C|--------------------------------------------------------|
G|-7/8/107-----11108/10------7/8/107------11108/10--|
D|-5/6/-85------9-86/-8------5/6/-85-------9-86/-8--|

Riff D
d|--------------------------------------------------------|
A|--------------------------------------------------------|
F|--------------------------------------------------------|
C|----------------------10------------------------10-9----|
G|-7--7-7--7-7-7--7--7---8---7--7-7--7-7-7--7--7---8-7----|
D|-5--5-5--5-5-5--5--5-------5--5-5--5-5-5--5--5----------|
      .    . . .     .          .    . . .     .
									(4x)
Riff E
d|--------------------------------------------------------|
A|--------------------------------------------------------|
F|--------------------------------------------------------|
C|--------------------------------------------------------|
G|-6h8p6-6-6-6--6h9p6-6-6-6--6h8p6-6-6-6--6h9p6h8p6-------|
D|--------------------------------------------------------|
         . . .        . . .        . . .
									(2x)
Riff D
d|--------------------------------------------------------|
A|--------------------------------------------------------|
F|--------------------------------------------------------|
C|----------------------10------------------------10-9----|
G|-7--7-7--7-7-7--7--7---8---7--7-7--7-7-7--7--7---8-7----|
D|-5--5-5--5-5-5--5--5-------5--5-5--5-5-5--5--5----------|
      .    . . .     .          .    . . .     .
									(4x)
Riff E
d|--------------------------------------------------------|
A|--------------------------------------------------------|
F|--------------------------------------------------------|
C|--------------------------------------------------------|
G|-6h8p6-6-6-6--6h9p6-6-6-6--6h8p6-6-6-6--6h9p6h8p6-------|
D|--------------------------------------------------------|
         . . .        . . .        . . .
									(4x)
Riff F
d|--------------------------------------------------------|
A|--------------------------------------------------------|
F|----------5-5-------------------5h6---------------------|
C|------6h8------8p6--8----8p6h8-------6h8p6--5---6p5-----|
G|-8h10---------------------------------------------------|
D|--------------------------------------------------------|
									(2x)
Riff G
d|--------------------------------------------------------|
A|--------------------------------------------------------|
F|--------------------------------------------------------|
C|--------------7h8----------7h8-----------7--------------|
G|-----------------------------------------5--------------|
D|-5-5-5-5-5-5-------5-5-5-5------5-5-5-5-----------------|
   . . . . . .       . . . .      . . . .

Riff H
d|--------------------------------------------------------|
A|--------------------------------------------------------|
F|--------------------------------------------------------|
C|--------------------------------------------------------|
G|--------------------------------------------------------|
D|-3-3-3-3-3-3-3-3-4-4-4-4-4-4-4-4------------------------|
   . . . . . . . . . . . . . . . .

Riff I
d|--------------------------------------------------------|
A|--------------------------------------------------------|
F|--------------------------------------------------------|
C|--------------------------------------------------------|
G|-87-7-7-7-7-7-7-7---87-7-7-7-7-7-7-7------------------|
D|-65-5-5-5-5-5-5-5---65-5-5-5-5-5-5-5------------------|
     . . . . . . . .     . . . . . . . .

Riff J
d|--------------------------------------------------------|
A|--------------------------------------------------------|
F|--------------------------------------------------------|
C|--------------------------------------------------------|
G|-87-7---7-7-7-7--7-7-7-7--7-7-7------------------------|
D|-65-5---5-5-5-5--5-5-5-5--5-5-5------------------------|
     . .   . . . .  . . . .  . . .
									(2x)
Riff K
d|--------------------------------------------------------|
A|--------------------------------------------------------|
F|--------------------------------------------------------|
C|--------------------------------------------------------|
G|-8---8h10h11---13---------------------------------------|
D|-6---6h-8h-9---11---------------------------------------|

Riff D
d|--------------------------------------------------------|
A|--------------------------------------------------------|
F|--------------------------------------------------------|
C|----------------------10------------------------10-9----|
G|-7--7-7--7-7-7--7--7---8---7--7-7--7-7-7--7--7---8-7----|
D|-5--5-5--5-5-5--5--5-------5--5-5--5-5-5--5--5----------|
      .    . . .     .          .    . . .     .
									(4x)
Riff E
d|--------------------------------------------------------|
A|--------------------------------------------------------|
F|--------------------------------------------------------|
C|--------------------------------------------------------|
G|-6h8p6-6-6-6--6h9p6-6-6-6--6h8p6-6-6-6--6h9p6h8p6-------|
D|--------------------------------------------------------|
         . . .        . . .        . . .
									(4x)
Riff F
d|--------------------------------------------------------|
A|--------------------------------------------------------|
F|----------5-5-------------------5h6---------------------|
C|------6h8------8p6--8----8p6h8-------6h8p6--5---6p5-----|
G|-8h10---------------------------------------------------|
D|--------------------------------------------------------|
									(4x)
Добавлено: 30.10.2013
Другие материалы по этой песне:

Страница создана 31.03.2012
http://primanota.ru/after-forever/follow-in-the-cry-chords.htm
Привет, Гость.
Предлагаем пройти революционный курс по гитаре.
Подарок от PrimaNota.Ru, забирай!