PrimaNota.ru - самый крупный в мире бесплатный архив песенных текстов, аккордов, табулатур и нот


After Edmund - Clouds - аккорды и текст, видео

Регистрация Запомнить меня
Войти через:  Facebook Google Twitter Vk Yandex Mail.ru

After Edmund - Clouds - аккорды и текст, видео

Печатать
Просмотров: 103
Clouds
After Edmund
Clouds ~ After Edmund
^ bend up
~ vibrato
p pull off
h hammer on
14h15p14 pick 14 hammer on then pull off 15

Intro
   A           E/Ab    F#m         F    E
Gtr 1
G|---------------------------------------------|
D|--7-7--7-10-9-7-6-6-6--4-4-4-7-6-4--3-3-2-2--|
A|---------------------------------------------|
E|--5-5--5--8-7-5-4-4-4--2-2-2-5-4-2--1-1-0-0--|
Gtr2
e|--5-5-5-5-5-5-4-4-4-4-4-7--7--7--7--5-5-4-4--|
B|--8^8^8^8^8^8^7^7^7^7^7^10^10^10^10^8^8^7^7^-|
G|---------------------------------------------|
D|---------------------------------------------|
Verse
A                          E                 A
The clouds are coming in again, This always happens to me 
                E                              F#m 
And I am caught between  I'm caught between Your love
         D           E             E7 
And this world that's against me 

Chorus
                A                 E/Ab         F#m           F    E
I know that You're not that far away Hello, hello, I'm not alone, 
    A                  E/Ab            F#m          
You make daylight from grey Hello, hello 
                 F      E
You're always lifting me above the clouds 

Interlude (Intro)

Verse 2 Gtr 2 (Phaser)
G|-------------------------------------------------------------|
D|--7-7-7-7-7-7-7-7-7-6-6-6-6-6-6-----7-7-7-7-7-7-7-7-6-6-6-6--|
A|--------------------------------7-7--------------------------|
E|-------------------------------------------------------------|
A                          E                 A
Trouble's on the way today Why does this happen to me You see That I'm left
  E                              F#m 
mixed up Mixed up between Your love
   D           E             E7 
And this world that's against me 

Chorus

Bridge
 D         D/C#         D            D/C#
You are the face of love You are the face of love
 D         D/C#         D    E    E7
You are the face of love to me

Solo
e|--------------------------17---------------------------------------------|
B|----14~-14------17^17^-17---14h15-14h15p14----------------------17^17^r17|
G|-16-------16-14----------------------------16p14--14-16-16^16^16---------|
D|------------------------------------------------16-----------------------|
Chorus
Outro same as intro and the end gtr 2 goes
e|--9--10-12-14---|
B|--12^13^15^17^--|
Добавлено: 23.04.2012
Другие материалы по этой песне:
  • Аккорды и текст

Страница создана 23.04.2012
http://primanota.ru/after-edmund/clouds-chords.htm
Привет, Гость.
Предлагаем пройти революционный курс по гитаре.
Подарок от PrimaNota.Ru, забирай!