PrimaNota.ru - самый крупный в мире бесплатный архив песенных текстов, аккордов, табулатур и нот


Afroman - Lets Get High Tonight - текст песни, таба, бас-таба, видео

Регистрация Запомнить меня
Войти через:  Facebook Google Twitter Vk Yandex Mail.ru

Afroman - Lets Get High Tonight - текст песни, таба, бас-таба, видео

Печатать
Просмотров: 222
Afroman - Lets Get High Tonight
==================================================

This is just the Intro solo, but the later parts have the same basis. 

                                     Q    Q    E  S  S S  S  S  S   
E||-------|-------|-------|-------|--------------------------------|
B||-------|-------|-------|-------|-------------------------10-10/-|
G||-------|-------|-------|-------|--------------------9-11--------|
D||-------|-------|-------|-------|---------------9-11-------------|
A||-------|-------|-------|-------|--------------------------------|
E||-------|-------|-------|-------|--------------------------------|


   E   Q    E  E  S S  S S  E         E.      E.   E.  S  E   S S  S S  
------------------9------------|---------------------------------------|
--12--10--------------12---10--|--10g12---10g12---10-------------------|
-------------------------------|-------------------------11--11------9-|
-------------------------------|----------------------------------11---|
-------------------------------|---------------------------------------|
-------------------------------|---------------------------------------|


                 >  > >                         >   >  >      
  E   E  E  E  S E  S E  E        Q    E  E  S  E   S  E  E   
-----------------9--9-9-----|--9g10------------12--12-12-----|
----------------------------|--------------------------------|
--L--11---------------------|--------------------------------|
----------------------------|--------------------------------|
----------------------------|--------------------------------|
----------------------------|--------------------------------|


   T  E   T  S Q    S S E   E   E      S   S S  S   S S  Q     E   S S  S S  
--12-14--12-14-9----9-9-9----------|----------------------------------------|
---------------------------12--10--|--10h-12---10h-12---10------------------|
-----------------------------------|--------------------------11--11------9-|
-----------------------------------|-----------------------------------11---|
-----------------------------------|----------------------------------------|
-----------------------------------|----------------------------------------|


  E   E  E  E   S S  S S  E   S  S     Q    Q    Q    Q                     
-----------------------------------|-----------------------|-------|-------|
---------------14---12---12--10-10-|---L-------------------|-------|-------|
--L--11----------------------------|-----------------------|-------|-------|
-----------------------------------|-----------------------|-------|-------|
-----------------------------------|-----------------------|-------|-------|

Key
h = hammer-on
/ = slide
g = grace note (note before g)
L = Tied note (ie a long lasting note)
> = Accents
Добавлено: 16.05.2012
Другие материалы по этой песне:

Страница создана 24.02.2012
http://primanota.ru/afroman/lets-get-high-tonight-chords.htm
Привет, Гость.
Предлагаем пройти революционный курс по гитаре.
Подарок от PrimaNota.Ru, забирай!