PrimaNota.ru - самый крупный в мире бесплатный архив песенных текстов, аккордов, табулатур и нот


Afia Moshik - Halom Matok - таба, видео

Регистрация Запомнить меня
Войти через:  Facebook Google Twitter Vk Yandex Mail.ru

Afia Moshik - Halom Matok - таба, видео

Печатать
Просмотров: 208
Уроки эстрадного вокала в Санкт-Петербурге
Artist: Moshik Afia & Slomi Saranga
Song: Halom matok
Tabbed by: Daniel Sherman (topgun10@zahav.net.il)
 
Intro/Outro
G#m E E6 F#
play fingered, not strummed
 

Verse
 
G#m E E6 F#
Eich Bekalut...
 

Chorus
 
G#m F# F#7 E E6 F# D#
Roe otach...
D#-C#-B-Bb-G#m
Na na na...
 
Solo1
 
E----9-12-11---11-11-11-11-11-9(11)9-------7-11-9---9-9-9-9-9-797
B-12---------------------------------11--------------------------
G----------------------------------------------------------------
D----------------------------------------------------------------
A----------------------------------------------------------------
E----------------------------------------------------------------
 

E-7-6-4-7-4-------9-7-6-9-6------11(9)11---11~-9~-7~-6~-4--------
B-----------7-5-------------9-7----------------------------------
G----------------------------------------------------------------
D----------------------------------------------------------------
A----------------------------------------------------------------
E----------------------------------------------------------------
 

Solo2
 
E-7-7-7-7-6-4-----4-4-4---4-6-----4-4-4---4-6-4---6-6-6----------
B-------------7-5-------------7-5---------------7----------------
G----------------------------------------------------------------
D----------------------------------------------------------------
A----------------------------------------------------------------
E----------------------------------------------------------------
 
E-7-7-7-7-6-4-----4-4-4---4-6-----4-4-4---4-6-4---6-6-6---6--7---
B-------------7-5-------------7-5---------------7----------------
G----------------------------------------------------------------
D----------------------------------------------------------------
A----------------------------------------------------------------
E----------------------------------------------------------------
 
Playing song by this order:
 
Intro x 1
Verse x 2
Solo1 x 1
Verse x 2
Chorus x 1
Verse x 2
Solo2 x 1
Solo1 x 1
Verse x 2
Chorus x 1
Verse x 2
Solo1 x 1
Verse(play fingered) x 2
Outro x 2
 
----------------------------------
Chord key:
G#m - 355333
E - 022100
E6 - 022120
F# - 244322
D# - X68886
C# - X46664
B - X24442
Bb - X13331

     
Добавлено: 17.08.2013
Другие материалы по этой песне:
  • Аккорды и текст

Страница создана 17.08.2013
http://primanota.ru/afia-moshik/halom-matok-chords.htm
Привет, Гость.
Предлагаем пройти революционный курс по гитаре.
Подарок от PrimaNota.Ru, забирай!