PrimaNota.ru - самый крупный в мире бесплатный архив песенных текстов, аккордов, табулатур и нот


AFI - Triple Zero - текст песни, таба, бас-таба, видео

Регистрация Запомнить меня
Войти через:  Facebook Google Twitter Vk Yandex Mail.ru

AFI - Triple Zero - текст песни, таба, бас-таба, видео

Печатать
Просмотров: 197
Submitted By: Sqweeky
EMail: Blindside831@aol.com
By:Rafi Kurlansik rude-69@juno.com

/ - slide to
pm... - palm mute
~ - Vibrato

Intro -
e|-------------|
B|-------------|
G|-------------|
D|--14---5--7--|
A|--12---5--6--|
E|-------3--5--|

Verse - "It Burns! It Burns!"
e|-----------------|
B|-----------------|
G|---------~5---8--|
D|-7--5/7--~5-7-8--|
A|-7--5/7--~3-7-6--|
E|-5--3/5-----5----|

Prechorus -
e|--------------------|
B|--------------------|
G|---------8-------8--|
D|-7-------8-7-----8--|
A|-7-------6-7-----6--|
E|-5---------5--------|
  pm......   ....

Chorus -
e|---------------|
B|---------------|
G|-----10-----7--|
D|--7--10-10--7--|
A|--7--8--10--5--|
E|--5-----8------|

Breakdown -
e|------------------------------------------------|
B|------------------------------------------------|
G|-7----------------------------------------------|
D|-----bass, then-------then pick slide and all---|
A|-5---------------~6---sorts of harmonics stuff--|
E|------------------------------------------------|

Breakdown - (Continued)
e|-----------------------------------------|
B|-----------------------------------------|
G|-------------------5------8------88888---|
D|-77-77-7-5/7-77-7--5-7-77-8-then-88888---|
A|-77-77-7-5/7-77-7-~3-7-77-6------66666---|
E|-55-55-5-3/5-55-5----5-55----------------|
      pm       ..        ..

Play Intro here, then:

Outro - (Be warned, this is only a try)
e|-----------------------|
B|-----------------------|
G|-----------21----------|
D|--14--15---20----------|
A|--12--14---19----13----|
E|-----------------11----|
Добавлено: 17.05.2012
Другие материалы по этой песне:

Страница создана 24.04.2012
http://primanota.ru/afi/triple-zero-chords.htm
Привет, Гость.
Предлагаем пройти революционный курс по гитаре.
Подарок от PrimaNota.Ru, забирай!