PrimaNota.ru - самый крупный в мире бесплатный архив песенных текстов, аккордов, табулатур и нот


AFI - Shatty Fatmas - текст песни, бас-таба, видео

Регистрация Запомнить меня
Войти через:  Facebook Google Twitter Vk Yandex Mail.ru

AFI - Shatty Fatmas - текст песни, бас-таба, видео

Печатать
Просмотров: 166
Tabbed by:jackson
> means that im too lazy to actually figure out the amount of strums, so you can while playing it.

Intro
G--------------|
D--------------|
A--------------|
E-2-2-2-2~-----|

Verse
G-----------------------|
D-----------------------|
A-----------------------|  x4
E-2>---7>--5------------|

Chorus
G--------------------------------|
D--------------------------------|
A---------------------------5----| x2
E-222022-7777-0-222022-7777--5---|

Bridge
G------------------------------|
D------------------------------|
A-----18-18-17-17-16-16-13-13--| Not sure if the high part is right.
E-2~---------------------------|

G-------------------------------------|
D-------------------------------------|
A-------------------------------------|
E-2>--5>--7>----2>---5>--7>-9>-10>-12-|

G---------------------|
D---------------------|
A-------------3-3-----|
E-2>--5>--7>------3-3-|

-repeat verse
-repeat chorus

Outro
G---------------|
D---------------|
A-5-------------|
E--5-5-3~-------|
Добавлено: 23.02.2012
Другие материалы по этой песне:
  • Аккорды и текст

Страница создана 23.02.2012
http://primanota.ru/afi/shatty-fatmas-chords.htm
Привет, Гость.
Предлагаем пройти революционный курс по гитаре.
Подарок от PrimaNota.Ru, забирай!