PrimaNota.ru - самый крупный в мире бесплатный архив песенных текстов, аккордов, табулатур и нот


AFI - Salt For Your Wounds - текст песни, таба, видео

Регистрация Запомнить меня
Войти через:  Facebook Google Twitter Vk Yandex Mail.ru

AFI - Salt For Your Wounds - текст песни, таба, видео

Печатать
Просмотров: 114
"Salt For Your Wounds"
 AFI
 Shut your mouth and open your eyes

Intro:
e|--------------------------------------------------------------------------|
B|--------------------------------------------------------------------------|
G|9-9-9-9-9-9-9-9-10-10-10-\-4-4-4--------------------------9-9-9-9-9-9-9-9-|
D|9-9-9-9-9-9-9-9-10-10-10-\-4-4-4-play this 3 times, then:-9-9-9-9-9-9-9-9-|
A|7-7-7-7-7-7-7-7-8---8--8-\-2-2-2--------------------------7-7-7-7-7-7-7-7-|
E|7-7-7-7-7-7-7-7-8---8--8-\-2-2-2--------------------------7-7-7-7-7-7-7-7-|

--------------|
--------------|
--------------|
--3--10-------|
--3--10-------|
--1---8-------|

Verse: Theres a tear in my heart where the blood ran out...
e|--------------------------------------------------------------------------|
B|--------------------------------------------------------------------------|
G|---------------10-10-10-10-10-10------------------------------------------|
D|--7-7-7-7-7-7--10-10-10-10-10-10-8-8-8-8-8-8-8-8-8--10\8------------------|
A|--7-7-7-7-7-7--8--8--8--8--8--8--8-8-8-8-8-8-8-8-8--10\8------------------|
E|--5-5-5-5-5-5--8--8--8--8--8--8--6-6-6-6-6-6-6-6-6--8-\6------------------|

e|--------------------------------------------------------------------------|
B|--------------------------------------------------------------------------|
G|---------------10-10-10-10-10-10-----------------------------(2x)---------|
D|--7-7-7-7-7-7--10-10-10-10-10-10-8-8-8-8-8-8-8-8-8---6--------------------|
A|--7-7-7-7-7-7--8--8--8--8--8--8--8-8-8-8-8-8-8-8-8---6--------------------|
E|--5-5-5-5-5-5--8--8--8--8--8--8--6-6-6-6-6-6-6-6-6---4--------------------|

Chorus: "Disenchanted, disgusted i regret that i trusted..."
e|--------------------------------------------------------------------------|
B|--------------------------------------------------------------------------|
G|-9-9-9-9-9-9-9-9---------------------------9-9-9-9-9----------------------|
D|-9-9-9-9-9-9-9-9--10-10-10-10-10-10-10-10--9-9-9-9-9--10-10-10-10-10------|
A|-7-7-7-7-7-7-7-7--10-10-10-10-10-10-10-10--7-7-7-7-7--10-10-10-10-10------|
E|-7-7-7-7-7-7-7-7--8--8--8--8--8--8--8--8---7-7-7-7-7--8--8--8--8--8-------|

e|--------------------------------------------------------------------------|
B|--------------------------------------------------------------------------|
G|-10-10-10-10-10-----------9-9-9-9-9-9-9-9-------------9-9-9-9-9-9-9-9-----|
D|-10-10-10-10-10-9-9-9-9-9-9-9-9-9-9-9-9-9-10-10-10-10-9-9-9-9-9-9-9-9-6-6-|
A|-8--8--8--8--8--9-9-9-9-9-7-7-7-7-7-7-7-7-10-10-10-10-7-7-7-7-7-7-7-7-6-6-|
E|-8--8--8--8--8--7-7-7-7-7-7-7-7-7-7-7-7-7-8--8--8--8--7-7-7-7-7-7-7-7-4-4-|
*Play Chorus:EVERYTHING IS THE SAME EXCEPT THE ENDINGWHICH IS THE breakdown
 "THEY TWISTED THE KNIFE FURTHER IN..."
e|--------------------------------------------------------------------------|
B|(end of chorus)-----------------------------------------------------------|
G|9----9--------------------3---3-------3---3-------3---3---------3---3-----|
D|9-8-9-7let ring....-------------------------------------------------------|
A|7-8-7-7-------------1-1-1---1---------------2-2-2---2---------------------|
E|7-6-7-5-------------------------2-2-2---2-----------------1-1-1---1-------|

e|--------------------------------------------------------------------------|
B|--------------------------------------------------------------------------|
G|-------3---3-------3---3--------3---3-------3---3----3XX333--------4XX444-|
D|-----------------------------------------------------3XX333-4XX444-4XX444-|
A|-1-1-1---1---2-2-2---2-------------------------------1XX111-4XX444-2XX222-|
E|--------------------------2-2-2---2---1-1-1---1------1XX111-2XX222-2XX222-|

e|--------------------------------------------------------------------------|
B|--------------------------------------------------------------------------|
G|----------3XX333--------4XX444--222222------------------------------------|
D|-3XX333---3XX333-4XX444-4XX444--222222------------------------------------|
A|-3XX333---1XX111-4XX444-2XX222--XXXXXX------------------------------------|
E|-1XX111---1XX111-2XX222-2XX222--XXXXXX------------------------------------|
Добавлено: 09.04.2012
Другие материалы по этой песне:
  • Аккорды и текст

Страница создана 09.04.2012
http://primanota.ru/afi/salt-for-your-wounds-chords.htm
Привет, Гость.
Предлагаем пройти революционный курс по гитаре.
Подарок от PrimaNota.Ru, забирай!