PrimaNota.ru - самый крупный в мире бесплатный архив песенных текстов, аккордов, табулатур и нот


AFI - Sacrifice Theory - аккорды и текст, таба, бас-таба, видео

Регистрация Запомнить меня
Войти через:  Facebook Google Twitter Vk Yandex Mail.ru

AFI - Sacrifice Theory - аккорды и текст, таба, бас-таба, видео

Печатать
Просмотров: 276
Уроки эстрадного вокала в Санкт-Петербурге
Авторы музыки: AFI
Авторы текста: Davey Havok
Sacrifice Theory
AFI
Intro
[e------7----------7-------7---7---7--7--7--7----
B------7----7-----7-------7---7---7--7--7--7----
G------7------7---7-------8---8---8--8--8--8----
D------9--------9-9-------9---9---9--9--9--9----
A------9----------9-------7---9---9--9--9--9----
E------7----------7-------7---7---7--7--7--7----]

VERSE x3 x1
[e-------------------------------------------------------
B-------------------------------------------------------
G-------------------------------------------------------
D------9-9-9-9----5-5--7-7--------5-5-5-5----7-7-7-7----
A------9-9-9-9----5-5--7-7--------5-5-5-5----7-7-7-7----
E------7-7-7-7----3-3--5-5--------3-3-3-3----5-5-5-5----]

CHORUS
[e---------------------------------------------------
B---------------------------------------------------
G------------------------------------7--------------
D----5-5---7-7---9-9-9-9-----5-5---9-7---7-7--5-5---
A----5-5---7-7---9-9-9-9-----5-5---9-5---7-7--5-5---
E----3-3---5-5---7-7-7-7-----3-3---7-----5-5--3-3---]

BRIDGE BRIDGE OUTRO
[e---------------------------------------------------
B---------------------------------------------------
G----------------7-7--------------------------------
D----9-9---5-5---7-7---7-7-----5--4--2----5-5--7-7--
A----9-9---5-5---5-5---7-7-----5--4--2----5-5--7-7--
E----7-7---3-3---------5-5-----3--2--0----3-3--5-5--]
Добавлено: 15.09.2013
Другие материалы по этой песне:

Страница создана 06.03.2012
http://primanota.ru/afi/sacrifice-theory-chords.htm
Привет, Гость.
Предлагаем пройти революционный курс по гитаре.
Подарок от PrimaNota.Ru, забирай!