PrimaNota.ru - самый крупный в мире бесплатный архив песенных текстов, аккордов, табулатур и нот


AFI - Rolling Balls - текст песни, таба, видео

Регистрация Запомнить меня
Войти через:  Facebook Google Twitter Vk Yandex Mail.ru

AFI - Rolling Balls - текст песни, таба, видео

Печатать
Просмотров: 148
    _______________
   / AFI           /
  / ROLING BALLS  /
 / ROLING BALLS  /
/_______________/


This is tuned in standard but i think they use flat when they play it like most of their 
the intro go's fast so you might get tired because the strums are almost al downstrokes.

INTRO
e|----------------------------------------|-----------------------------|
B|-o------------------------------------o-|-----------------------------|
G|----------------------------9-----------|---------------------9-------|
D|----9-9-9--7--5-5-5--7-7-7--9--9-9-9----|----9-9-9-9-9-9-9-9--9--9--7-|
A|-o--9-9-9--7--5-5-5--7-7-7--7--9-9-9--o-|----9-9-9-9-9-9-9-9--7--9--7-|
E|----7-7-7--5--3-3-3--5-5-5-----7-7-7----|----7-7-7-7-7-7-7-7-----7--5-|

VERSE
e|----------------------------------------------------------------------|
B|----------------------------------------------------------------------|
G|----------------------------9-----------------------------------------|
D|----9-9-9--7--5-5-5--7-7-7--9--9-9-9----------------------------------|
A|----9-9-9--7--5-5-5--7-7-7--7--9-9-9----------------------------------|
E|----7-7-7--5--3-3-3--5-5-5-----7-7-7----------------------------------|

1st CHORUS
e|----------------------------------------------------------------------|
B|----------------------------------------------------------------------|
G|----12-12-12-12--7-7-7-7-----------9----------------------------------|
D|----12-12-12-12--7-7-7-7--9-9-9-9--9--9-9-9---------------------------|
A|----10-10-10-10--5-5-5-5--9-9-9-9--7--9-9-9---------------------------|
E|--------------------------7-7-7-7-----7-7-7---------------------------|

e|----------------------------------------------------------------------|
B|----------------------------------------------------------------------|
G|----12-12-12-12--7-7-7-7-----------9-9-9-9----------------------------|
D|----12-12-12-12--7-7-7-7--9-9-9-9--9-9-9-9----------------------------|
A|----10-10-10-10--5-5-5-5--9-9-9-9--7-7-7-7----------------------------|
E|--------------------------7-7-7-7-------------------------------------|

2nd CHORUS
e|----------------------------------------------------------------------|
B|----------------------------------------------------------------------|
G|----12-12-12-12--7-7-7-7-----------9--11------------------------------|
D|----12-12-12-12--7-7-7-7--9-9-9-9--9--11------------------------------|
A|----10-10-10-10--5-5-5-5--9-9-9-9--7--9-------------------------------|
E|--------------------------7-7-7-7-------------------------------------|

e|----------------------------------------------------------------------|
B|----------------------------------------------------------------------|
G|----12-12-12-12--7-7-7-7-----------9-9-9-9----------------------------|
D|----12-12-12-12--7-7-7-7--9-9-9-9--9-9-9-9----------------------------|
A|----10-10-10-10--5-5-5-5--9-9-9-9--7-7-7-7----------------------------|
E|--------------------------7-7-7-7-------------------------------------|

INTERLUDE
e|----------------------------------------------------------------------|
B|----------------------------------------------------------------------|
G|------------------9-9--------------------------5-5-5-5----------------|
D|----7-7-7-7--5-5--9-9--9-9-------7-7-7-7--5-5--5-5-5-5----------------|
A|----7-7-7-7--5-5--7-7--9-9-------7-7-7-7--5-5--3-3-3-3----------------|
E|----5-5-5-5--3-3-------7-7-------5-5-5-5--3-3-------------------------|
p.m.      * *
OUTRO
e|----------------------------------------------------------------------|
B|----------------------------------------------------------------------|
G|----------------------------------------------------------------------|
D|----7--7--------------------------------------------------------------|
A|----7--7--------------------------------------------------------------|
E|----5--5--------------------------------------------------------------|
Добавлено: 07.03.2012
Другие материалы по этой песне:

Страница создана 07.03.2012
http://primanota.ru/afi/rolling-balls-chords.htm
Привет, Гость.
Предлагаем пройти революционный курс по гитаре.
Подарок от PrimaNota.Ru, забирай!