PrimaNota.ru - самый крупный в мире бесплатный архив песенных текстов, аккордов, табулатур и нот


AFI - Kill Caustic - текст песни, таба, бас-таба, видео

Регистрация Запомнить меня
Войти через:  Facebook Google Twitter Vk Yandex Mail.ru

AFI - Kill Caustic - текст песни, таба, бас-таба, видео

Печатать
Просмотров: 322
Авторы: David Marchand, Adam Carson, Hunter Burgan, Jade Puget

*there are probably a few parts that are off.
but I will correct them soon

AFI - Kill Caustic
Decemberunderground 6/6/06
Tabbed by Brett silence.of.light@gmail.com


tuning [eb ab db gb bb eb]
pm - palm mute
<> - harmonics
 ~ - hold note


|--10-10-10-10-10-10--|
|--14-14-14-14-14-14--|
|---------------------|
|---------------------|
|---------------------|
|---------------------|


    pm.........             pm......
|-------------------------------------|
|-------------------------------------|
|-------------------------------------|
|-4-4-4-4-4-4-4---0-4/5-0-4-44-44-44--|
|-4-4-4-4-4-4-4---0-4/5-0-4-44-44-44--|
|-2-2-2-2-2-2-2---0-2/3-0-2-22-22-22--|


            pm.........             
|---------------------------------------0~~~~--|
|---------------------------------------0~~~~--|
|---------------------------------------0~~~~--|
|-0-4/5-0-4-4-4-4-4-4-4---0-4/5-0-2~~~~-2~~~~--|
|-0-4/5-0-4-4-4-4-4-4-4---0-4/5-0-2~~~~-2~~~~--|
|-0-2/3-0-2-2-2-2-2-2-2---0-2/3-0-0~~~~-0~~~~--|


            
|--------------------------------|
|--------------------------------|
|-----------------------6--------|
|-4-44444444--0-4/5-0-4---7-4-6--|
|-4-----------0-4/5-0-4----------|
|-2-----------0-2/3-0-2----------|


            pm......             
|------------------------------------0~~~~--|
|------------------------------------0~~~~--|
|------------------------------------0~~~~--|
|-0-4/5-0-4-44-44-44---0-4/5-0-2~~~~-2~~~~--|
|-0-4/5-0-4-44-44-44---0-4/5-0-2~~~~-2~~~~--|
|-0-2/3-0-2-22-22-22---0-2/3-0-0~~~~-0~~~~--|


|----------------------------------------|
|----------------------------------------|
|----------------------------6~~~8~~~10--|
|-4~~~~~~~~~~~~~~~~~~~~444444------------|
|----------------------------------------|
|----------------------------------------|


|-5-5-5-5-5-5-5-5--0-0-0-0-0-0-0-0----------------------------------------------|
|-5-5-5-5-5-5-5-5--0-0-0-0-0-0-0-0----------------------------------------------|
|-5-5-5-5-5-5-5-5--0-0-0-0-0-0-0-0--11-9----------11-9--14-14-14-14-16-16-16-16-|
|-7-7-7-7-7-7-7-7--2-2-2-2-2-2-2-2--11-9-7/9-7-4--11-9--------------------------|
|-7-7-7-7-7-7-7-7--2-2-2-2-2-2-2-2---9-7-7/9-7-4---9-7--12-12-12-12-14-14-14-14-|
|-5-5-5-5-5-5-5-5--0-0-0-0-0-0-0-0-------5/7-5-2--------------------------------|



|-5-5-5-5-5-5-5-5--0-0-0-0-0-0-0-0----------------------------------------------|
|-5-5-5-5-5-5-5-5--0-0-0-0-0-0-0-0----------------------10-10-10-10-10-10-10-10-|
|-5-5-5-5-5-5-5-5--0-0-0-0-0-0-0-0--11-9----------11-9--14-14-14-14-14-14-14-14-|
|-7-7-7-7-7-7-7-7--2-2-2-2-2-2-2-2--11-9-7/9-7-4--11-9--------------------------|
|-7-7-7-7-7-7-7-7--2-2-2-2-2-2-2-2---9-7-7/9-7-4---9-7--------------------------|
|-5-5-5-5-5-5-5-5--0-0-0-0-0-0-0-0-------5/7-5-2--------------------------------|


          pm.........             pm......
|---------------------------------------------|
|---------------------------------------------|
|---------------------------------------------|
|-0-4/5-0-4-4-4-4-4-4-4---0-4/5-0-4-44-44-44--|
|-0-4/5-0-4-4-4-4-4-4-4---0-4/5-0-4-44-44-44--|
|-0-2/3-0-2-2-2-2-2-2-2---0-2/3-0-2-22-22-22--|


            pm.........             
|---------------------------------------0~~~~--|
|---------------------------------------0~~~~--|
|---------------------------------------0~~~~--|
|-0-4/5-0-4-4-4-4-4-4-4---0-4/5-0-2~~~~-2~~~~--|
|-0-4/5-0-4-4-4-4-4-4-4---0-4/5-0-2~~~~-2~~~~--|
|-0-2/3-0-2-2-2-2-2-2-2---0-2/3-0-0~~~~-0~~~~--|


            
|--------------------------------|
|--------------------------------|
|-----------------------6--------|
|-4-44444444--0-4/5-0-4---7-4-6--|
|-4-----------0-4/5-0-4----------|
|-2-----------0-2/3-0-2----------|


            pm......             
|------------------------------------0~~~~--|
|------------------------------------0~~~~--|
|------------------------------------0~~~~--|
|-0-4/5-0-4-44-44-44---0-4/5-0-2~~~~-2~~~~--|
|-0-4/5-0-4-44-44-44---0-4/5-0-2~~~~-2~~~~--|
|-0-2/3-0-2-22-22-22---0-2/3-0-0~~~~-0~~~~--|


|----------------------------------------|
|----------------------------------------|
|----------------------------6~~~8~~~10--|
|-4~~~~~~~~~~~~~~~~~~~~444444------------|
|----------------------------------------|
|----------------------------------------|


|-5-5-5-5-5-5-5-5--0-0-0-0-0-0-0-0----------------------------------------------|
|-5-5-5-5-5-5-5-5--0-0-0-0-0-0-0-0----------------------------------------------|
|-5-5-5-5-5-5-5-5--0-0-0-0-0-0-0-0--11-9----------11-9--14-14-14-14-16-16-16-16-|
|-7-7-7-7-7-7-7-7--2-2-2-2-2-2-2-2--11-9-7/9-7-4--11-9--------------------------|
|-7-7-7-7-7-7-7-7--2-2-2-2-2-2-2-2---9-7-7/9-7-4---9-7--12-12-12-12-14-14-14-14-|
|-5-5-5-5-5-5-5-5--0-0-0-0-0-0-0-0-------5/7-5-2--------------------------------|



|-5-5-5-5-5-5-5-5--0-0-0-0-0-0-0-0-----------------------------------|
|-5-5-5-5-5-5-5-5--0-0-0-0-0-0-0-0-----------------------------------|
|-5-5-5-5-5-5-5-5--0-0-0-0-0-0-0-0--11-9----------11-9--14-14-14-13--|
|-7-7-7-7-7-7-7-7--2-2-2-2-2-2-2-2--11-9-7/9-7-4--11-9---------------|
|-7-7-7-7-7-7-7-7--2-2-2-2-2-2-2-2---9-7-7/9-7-4---9-7--12-12-12-11--|
|-5-5-5-5-5-5-5-5--0-0-0-0-0-0-0-0-------5/7-5-2---------------------|



|-------------------------<3>-<3>-------------------------|
|-------------------------<3>-<3>-------------------------|
|-------------222---------<3>-<3>--------222--------------|
|-4-444-4-2-4-222-2-4-2-4----------4-2-4-222-2-4-2-4-7-9--|
|-4-444-4-2-4-000-2-4-2-4----------4-2-4-000-2-4-2-4-7-9--|
|-2-222-2-0-2-----0-2-0-2----------2-0-2-----0-2-0-2-5-7--|


   pm.................................
|--------------------------------------------------------------------|
|--------------------------------------------------------------------|
|--------------------------------------------------------------------|
|--4-4-4-22222-2/4--4-4-4-22222-2/4--4-4-4-22222--2/4-4-6-7-6-7-9-11-|
|--------------------------------------------------------------------|
|--------------------------------------------------------------------|


|-------------------------<3>-<3>---------------------|
|-------------------------<3>-<3>---------------------|
|-------------222---------<3>-<3>--------222----------|
|-4-444-4-2-4-222-2-4-2-4----------4-2-4-222-2-7-7-7--|
|-4-444-4-2-4-000-2-4-2-4----------4-2-4-000-2-7-7-7--|
|-2-222-2-0-2-----0-2-0-2----------2-0-2-----0-5-5-5--|


|-5-5-5-5-5-5-5-5--0-0-0-0-0-0-0-0----------------------------------------------|
|-5-5-5-5-5-5-5-5--0-0-0-0-0-0-0-0----------------------------------------------|
|-5-5-5-5-5-5-5-5--0-0-0-0-0-0-0-0--11-9----------11-9--14-14-14-14-16-16-16-16-|
|-7-7-7-7-7-7-7-7--2-2-2-2-2-2-2-2--11-9-7/9-7-4--11-9--------------------------|
|-7-7-7-7-7-7-7-7--2-2-2-2-2-2-2-2---9-7-7/9-7-4---9-7--12-12-12-12-14-14-14-14-|
|-5-5-5-5-5-5-5-5--0-0-0-0-0-0-0-0-------5/7-5-2--------------------------------|



|-5-5-5-5-5-5-5-5--0-0-0-0-0-0-0-0----------------------------------------------|
|-5-5-5-5-5-5-5-5--0-0-0-0-0-0-0-0----------------------10-10-10-10-10-10-10-10-|
|-5-5-5-5-5-5-5-5--0-0-0-0-0-0-0-0--11-9----------11-9--14-14-14-14-14-14-14-14-|
|-7-7-7-7-7-7-7-7--2-2-2-2-2-2-2-2--11-9-7/9-7-4--11-9--------------------------|
|-7-7-7-7-7-7-7-7--2-2-2-2-2-2-2-2---9-7-7/9-7-4---9-7--------------------------|
|-5-5-5-5-5-5-5-5--0-0-0-0-0-0-0-0-------5/7-5-2--------------------------------|


|-----|
|-----|
|-----|
|-0-4-|
|-0-4-|
|-0-2-|
Добавлено: 06.05.2012
Другие материалы по этой песне:

Страница создана 24.02.2012
http://primanota.ru/afi/kill-caustic-chords.htm
Привет, Гость.
Предлагаем пройти революционный курс по гитаре.
Подарок от PrimaNota.Ru, забирай!