PrimaNota.ru - самый крупный в мире бесплатный архив песенных текстов, аккордов, табулатур и нот


AFI - Interview - текст песни, таба, бас-таба, видео

Регистрация Запомнить меня
Войти через:  Facebook Google Twitter Vk Yandex Mail.ru

AFI - Interview - текст песни, таба, бас-таба, видео

Печатать
Просмотров: 226
Авторы: David Marchand, Adam Carson, Hunter Burgan, Jade Puget

ill figure out the piano part when i have more time... i didnt go into as much
detail as normal with this tab so you will have to figuire out some of the rythym and
muted parts out by listening to it yourself. i couldnt find any tabs of it out yet so i
to make a basic one for it. hopefully someone will make one with more detail, since i dont
have enough time right now.

Guitar 1-
(Part 1)
E-------------------------------|
B-------------------------------|
G-------------------------------|
D-------------------------------|
A-5-5-5-5-5-5-5-5-5-5-5-5-5-5-5-|...
E-------------------------------|


(Part 2)

E-------------------------------|
B-------------------------------|
G-------------------------------|
D-------------------------------|
A-7-7-7-7-7-7-7-7-7-7-7-7-7-7-7-|...
E-------------------------------|

(Part 3)
E-------------------------------|
B-------------------------------|
G-------------------------------|
D-------------------------------|
A-------------------------------|
E-------------------------------|

(Part 4)
E-------------------------------|
B-------------------------------|
G-------------------------------|
D-------------------------------|
A-5-5-5-5-5-5-5-5-5-5-5-5-5-5-5-|...
E-------------------------------|

(Part 5)
E-------------------------------|
B-------------------------------|
G-------------------------------|
D-------------------------------|
A-7-7-7-7-7-7-7-7-7-7-7-7-7-7-7-|...
E-------------------------------|

(Part 6)
E-------------------------------|
B-------------------------------|
G-------------------------------|
D-------------------------------|
A-------------------------------|
E-------------------------------|

(Part 7)
E-------------------------------|
B-------------------------------|
G-------------------------------|
D-------------------------------|
A-5-5-5-5-5-5-5-5-5-5-5-5-5-5-5-|...
E-------------------------------|

(Part 8)
E-------------------------------|
B-------------------------------|
G-------------------------------|
D-------------------------------|
A-5-5-5-5-5-5-5-5-5-5-5-5-5-5-5-|...
E-------------------------------|

(Part 9)
E-------------------------------|
B-------------------------------|
G-------------------------------|
D-------------------------------|
A-7-7-7-7-7-7-7-7-7-7-7-7-7-7-7-|...
E-------------------------------|

(Part 10)
E-------------------------------|
B-------------------------------|
G-------------------------------|
D-------------------------------|
A-------------------------------|
E-------------------------------|

(Part 11)
E-------------------------------|
B-------------------------------|
G-------------------------------|
D-------------------------------|
A-5-5-5-5-5-5-5-5-5-5-5-5-5-5-5-|...
E-------------------------------|


Guitar 2-
(Part 1)
E--3-3p2-2--|
B-0-0-------|
G-----------| x6
D-----------|
A-----------|
E-----------|

(Part 2)
E-----------|
B--3-3p0h3--|
G-4-4-------| x1
D-----------|
A-----------|
E-----------|

(Part 3)
E--3-3p2-2--|
B-0-0-------|
G-----------| x1
D-----------|
A-----------|
E-----------|

(Part 4)
E--3-3p2-2--|
B-0-0-------|
G-----------| x2
D-----------|
A-----------|
E-----------|

(Part 5)
E-----------|
B--3-3p0h3--|
G-4-4-------| x2
D-----------|
A-----------|
E-----------|

(Part 6)
E--3-3p2-2--|
B-0-0-------|
G-----------| x1
D-----------|
A-----------|
E-----------|

(Part 7)these are just the chords and order; its easy to figuire out the rythym and pattern
E-5...7...3...5...
B-5...9...3...5...
G-7...9...4...6...
D-7...9...5...7...
A-5...7...5...7...
E---------3...5...

(Part 8)
E--3-3p2-2--|
B-0-0-------|
G-----------| x2
D-----------|
A-----------|
E-----------|

(Part 9)
E-----------|
B--3-3p0h3--|
G-4-4-------| x2
D-----------|
A-----------|
E-----------|

(Part 10)
E--3-3p2-2--|
B-0-0-------|
G-----------| x1
D-----------|
A-----------|
E-----------|

(Part 11)
E-5...7...3...5...
B-5...9...3...5...
G-7...9...4...6...
D-7...9...5...7...
A-5...7...5...7...
E---------3...5...
Добавлено: 28.06.2012
Другие материалы по этой песне:

Страница создана 21.02.2012
http://primanota.ru/afi/interview-chords.htm
Привет, Гость.
Предлагаем пройти революционный курс по гитаре.
Подарок от PrimaNota.Ru, забирай!