PrimaNota.ru - самый крупный в мире бесплатный архив песенных текстов, аккордов, табулатур и нот


AFI - Decemberunderground (album) - таба, бас-таба, видео

Регистрация Запомнить меня
Войти через:  Facebook Google Twitter Vk Yandex Mail.ru

AFI - Decemberunderground (album) - таба, бас-таба, видео

Печатать
Просмотров: 183
Уроки эстрадного вокала в Санкт-Петербурге
[Decemberunderground]

By: Joshua Oliveira
Tunings Used: D# G# C# F# A# D# (Regular AFI)
              C# G# C# F# A# D# (Regular AFI, plus Drop D)

Symbols used are listed at the end of the tab, look if you are unsure
of something you see! Also use times to check parts if your not sure
where they take place in the song, that's what they're there for! And
yes AFI does do a couple of songs in Drop D..if yu don't believe me
try to play the songs in regular D# G# C# F# A# D# tuning n see how
it sounds! :)

Also this tab is Huge! So most likely i forgot some things..let me
kno if i did so i can get it in ther..and jsut in case yu were gona
print this, its a good 43 pages long! So yeah..


OK! Here goes..


1.) [Prelude 12/21] - [1:39]
Tuning: D# G# C# F# A# D#

There's not much guitar in this song but I tabbed out some of the
sounds I heard..

[High Pitched Noises] - [00:18] - [00:53]
- ---12~---------|
- ------12-13-10-| I'm gonna be lazy here n say that its played wayy
- -9~------------| to many times to tab out..so just play that from
- ---------------| 00:18 till 00:53.
- ---------------|
- ---------------|

[Orchestra] - [00:56] - [01:08] AND [01:22] - [01:34--|
- ----------------------------------------------------|
- -----10-12---13---10-12-----------------------------| This is that orchestra sorta noise you
- -9---9--11---12---9--11-----------------------------| hear between the Oh's once the song picks
- -9---7--9----10---7--9------------------------------| up. Once again it's played too many times
- -7--------------------------------------------------| to tab each n every one of them.
- ----------------------------------------------------|

Now here's the guitar.

[Actual Guitar] - [01:08] - [01:19]
- ------------------------------------------------------------------|
- ------------------------------------------------------------------|
- ------------------------------------------------------------------|
- -----------------------------------------------9-9-9-9-9-9-9-9-9--|
- -7-7-7-7-7-7-7-7-7-7-7-7-7-7-7-7-7-7-7-7-7-7-7-7-7-7-7-7-7-7-7-7--|
- -------------------------------------------------------0-0-0-0-0--|
PM .......................................

[More Guitar] - [01:22] - [01:35]
- -------------------------------------------------------------------|
- -------------------------------------------------------------------|
- -----------------------------Acoustic------------------------------|
- -------------------------------------------------------------------|
- -7-7-7-7-7-7-7-7-7-7-7-7-7-7-7-7-7-7-7-7-7-7-7-7-7-7-7-7-7-7-7-7-7-|
- -------------------------------------------------------------------|

[End Noise] - [01:35] - [01:39]
- ---12~---------|
- ------12-13-10-|
- -9~------------|
- ---------------|
- ---------------|
- ---------------|


2.) [Kill Caustic] - [2:38]
Tuning: D# G# C# F# A# D#

[Intro] - [00:00] - [00:03]
   V  V  V  V  V
- -6--6--6--6--6--|
- -10-10-10-10-10-|
- -9--9--9--9--9--|
- ----------------|
- ----------------|
- ----------------|

[Verse 1] - [00:03] - [00:32]
- ---------------------------------------------------------------------|
- ---------------------------------------------------------------------|
- ---------------------------------------------------------------------|
- -4-44-44-44-44-4/5-222-4-44-44-44-44-4/5-222-4-44-44-44-44-4/5-222-2-|
- -4-44-44-44-44-4/5-222-4-44-44-44-44-4/5-222-4-44-44-44-44-4/5-222-2-|
- -2-22-22-22-22-2/3-000-2-22-22-22-22-2/3-000-2-22-22-22-22-2/3-000-0-|
PM   ...........     ...   ...........     ...   ...........     ...

  ---------------------------------------------------------------------|
  --------------------------------------------2-2----------------------|
  ------9-9999-----------------------------------2-2-4-1-1-1-----------|
  -2222-x-xxxx--4-4-4-4-4-4-4-4-4-2-4-5-4-2-4----------------2-4-5-4-2-|
  -2222-7-7777--4-----------------2-4-5-4-2-4----------------2-4-5-4-2-|
  -0000-0-0000--2-----------------0-2-3-2-0-2----------------0-2-3-2-0-|
PM                                .........                  .........

  ------------------------------------------------------------------|
  ------------------------------------------------------------------|
  ------------------------9-9999------1111111111-11\6-6-666-8-8-888-|
  -4-444-444-444/7-2-2222-x-xxxx------x-x-x-x-x--x--x-x-xxx-x-x-xxx-|
  -4-444-444-444/7-2-2222-7-7777-9~---9-9-9-9-9--9-\4-4-444-6-6-666-|
  -2-222-222-222/5-0-0000-0-0000------0-0-0-0-0--0--0-0-000-0-0-000-|
PM   ..........

  --------------------------|
  --------------------------|
  -10-10-101010-11-11-11-11-|
  -x--x--x-x-x--x--x--x--x--|
  -8--8--8-8-8--9--9--9--9--|
  -0--0--0-0-0--0--0--0--0--|

[Chorus 1] - [00:32] - [00:51]
- -5-5-5-5-5-5-5-5-5-5-5-5-5-5-5-5-0-0-0-0-0-0-0-0-0-0-0-0-0-0-0-0-----|
- -5-5-5-5-5-5-5-5-5-5-5-5-5-5-5-5-0-0-0-0-0-0-0-0-0-0-0-0-0-0-0-0-----|
- -6-6-6-6-6-6-6-6-6-6-6-6-6-6-6-6-1-1-1-1-1-1-1-1-1-1-1-1-1-1-1-1-----|
- -7-7-7-7-7-7-7-7-7-7-7-7-7-7-7-7-2-2-2-2-2-2-2-2-2-2-2-2-2-2-2-2-12\-|
- -7-7-7-7-7-7-7-7-7-7-7-7-7-7-7-7-2-2-2-2-2-2-2-2-2-2-2-2-2-2-2-2-12\-|
- -5-5-5-5-5-5-5-5-5-5-5-5-5-5-5-5-0-0-0-0-0-0-0-0-0-0-0-0-0-0-0-0-12\-|

  ---------------------------------------------------5-5-5-5-5-5-5-5-5-|
  ---------------------------------------------------5-5-5-5-5-5-5-5-5-|
  -11-9-----------------11-9-14-14-14/16-16-16-16-16-6-6-6-6-6-6-6-6-6-|
  -11-9-x-x-7/9-7-2-x-x-11-9-x--x--x--x--x--x--x--x--7-7-7-7-7-7-7-7-7-|
  -9--7-x-x-7/9-7-2-x-x-9--7-12-12-12/14-14-14-14-14-7-7-7-7-7-7-7-7-7-|
  ------x-x-5/7-5-0-x-x------0--0--0--0--0--0--0--0--5-5-5-5-5-5-5-5-5-|

  -5-5-5-5-5-5-5-0-0-0-0-0-0-4-4-4/5-5-5-5-5--------------------------|
  -5-5-5-5-5-5-5-0-0-0-0-0-0-x-x-x-x-x-x-x-x-5-5----------------------|
  -6-6-6-6-6-6-6-1-1-1-1-1-1-1-1-1/2-2-2-2-2-x-x-11\9-----------------|
  -7-7-7-7-7-7-7-2-2-2-2-2-2-0-0-0-0-0-0-0-0-2-2-x--x-x-x-7/9-7-2-x-x-|
  -7-7-7-7-7-7-7-2-2-2-2-2-2-----------------0-0-9-\7-x-x-7/9-7-2-x-x-|
  -5-5-5-5-5-5-5-0-0-0-0-0-0---------------------0--0-x-x-5/7-5-0-x-x-|

        V  V  V  V  V
  ------6--6--6--6--6--|
  ------10-10-10-10-10-|
  -11-9-9--9--9--9--9--|
  -11-9----------------|
  -9--7----------------|
  ---------------------|

[Verse 2] - [00:51] - [01:20]
- ---------------------------------------------------------------------|
- ---------------------------------------------------------------------|
- ---------------------------------------------------------------------|
- -4-44-44-44-44-4/5-222-4-44-44-44-44-4/5-222-4-44-44-44-44-4/5-222-2-|
- -4-44-44-44-44-4/5-222-4-44-44-44-44-4/5-222-4-44-44-44-44-4/5-222-2-|
- -2-22-22-22-22-2/3-000-2-22-22-22-22-2/3-000-2-22-22-22-22-2/3-000-0-|
PM   ...........     ...   ...........     ...   ...........     ...

  ---------------------------------------------------------------------|
  --------------------------------------------2-2----------------------|
  ------9-9999-----------------------------------2-2-4-1-1-1-----------|
  -2222-x-xxxx--4-4-4-4-4-4-4-4-4-2-4-5-4-2-4----------------2-4-5-4-2-|
  -2222-7-7777--4-----------------2-4-5-4-2-4----------------2-4-5-4-2-|
  -0000-0-0000--2-----------------0-2-3-2-0-2----------------0-2-3-2-0-|
PM                                .........                  .........

  ------------------------------------------------------------------|
  ------------------------------------------------------------------|
  ------------------------9-9999------1111111111-11\6-6-666-8-8-888-|
  -4-444-444-444/7-2-2222-x-xxxx------x-x-x-x-x--x--x-x-xxx-x-x-xxx-|
  -4-444-444-444/7-2-2222-7-7777-9~---9-9-9-9-9--9-\4-4-444-6-6-666-|
  -2-222-222-222/5-0-0000-0-0000------0-0-0-0-0--0--0-0-000-0-0-000-|
PM   ..........

  --------------------------|
  --------------------------|
  -10-10-101010-11-11-11-11-|
  -x--x--x-x-x--x--x--x--x--|
  -8--8--8-8-8--9--9--9--9--|
  -0--0--0-0-0--0--0--0--0--|

[Chorus 2] - [1:20] - [01:46]
- -5-5-5-5-5-5-5-5-5-5-5-5-5-5-5-5-0-0-0-0-0-0-0-0-0-0-0-0-0-0-0-0-----|
- -5-5-5-5-5-5-5-5-5-5-5-5-5-5-5-5-0-0-0-0-0-0-0-0-0-0-0-0-0-0-0-0-----|
- -6-6-6-6-6-6-6-6-6-6-6-6-6-6-6-6-1-1-1-1-1-1-1-1-1-1-1-1-1-1-1-1-----|
- -7-7-7-7-7-7-7-7-7-7-7-7-7-7-7-7-2-2-2-2-2-2-2-2-2-2-2-2-2-2-2-2-12\-|
- -7-7-7-7-7-7-7-7-7-7-7-7-7-7-7-7-2-2-2-2-2-2-2-2-2-2-2-2-2-2-2-2-12\-|
- -5-5-5-5-5-5-5-5-5-5-5-5-5-5-5-5-0-0-0-0-0-0-0-0-0-0-0-0-0-0-0-0-12\-|

  ---------------------------------------------------5-5-5-5-5-5-5-5-5-|
  ---------------------------------------------------5-5-5-5-5-5-5-5-5-|
  -11-9-----------------11-9-14-14-14/16-16-16-16-16-6-6-6-6-6-6-6-6-6-|
  -11-9-x-x-7/9-7-2-x-x-11-9-x--x--x--x--x--x--x--x--7-7-7-7-7-7-7-7-7-|
  -9--7-x-x-7/9-7-2-x-x-9--7-12-12-12/14-14-14-14-14-7-7-7-7-7-7-7-7-7-|
  ------x-x-5/7-5-0-x-x------0--0--0--0--0--0--0--0--5-5-5-5-5-5-5-5-5-|

  -5-5-5-5-5-5-5-0-0-0-0-0-0-4-4-5-5-5-5-5-5--------------------------|
  -5-5-5-5-5-5-5-0-0-0-0-0-0-x-x-x-x-x-x-x-x-5-5----------------------|
  -6-6-6-6-6-6-6-1-1-1-1-1-1-1-1-2-2-2-2-2-2-x-x-11\9-----------------|
  -7-7-7-7-7-7-7-2-2-2-2-2-2-0-0-0-0-0-0-0-0-2-2-x--x-x-x-7/9-7-2-x-x-|
  -7-7-7-7-7-7-7-2-2-2-2-2-2-----------------0-0-9-\7-x-x-7/9-7-2-x-x-|
  -5-5-5-5-5-5-5-0-0-0-0-0-0---------------------0--0-x-x-5/7-5-0-x-x-|

  ------5-5-5\4-4-4-4-4----|
  ------x-x-x-x-x-x-x-x----|
  -11-9-2-2-2\1-1-1-1-1----|
  -11-9-0-0-0-0-0-0-0-0----|
  -9--7--------------------|
  ----------------------2~-|

[Bridge] - [01:46] - [02:16]
- ------------------------------------<3>-------<3>--------------------|
- ------------------------------------<3>-------<3>--------------------|
- -----------------2------------------<3>-------<3>------2-----------2-|
- -4---4-44--4-2-4-2-2-2-4-2-4->4<->4<--->4<->4<---4-2-4-2-2-2-4-2-4-2-|
- -4---4-44--4-2-4-0-2-2-4-2-4->4<->4<--->4<->4<---4-2-4-0-2-2-4-2-4-0-|
- -2---2-22--2-0-2---0-0-2-0-2->2<->2<--->2<->2<---2-0-2---0-0-2-0-2---|
PM     ....                    .......   .......

  ------------------------------------------------------------------------|
  ------------------------------------------------------------------------|
  -2-2-2-4-4-4-4----------------------------------------------------------|
  -2-2-2-4-4-4-4-4-4-4-22222222-4-4-4-22222222-44444444-22244444-444/666--|
  -0-0-0-2-2-2-2----------------------------------------------------------|
  ------------------------------------------------------------------------|
PM               .................................
TP                                                               *******

  -------------------------------------------------<3>-------<3>--------|
  -------------------------------------------------<3>-------<3>--------|
  ------------------------------2------------------<3>-------<3>------2-|
  /777\666/777/999/111111-4-2-4-2-2-2-4-2-4->4<->4<--->4<->4<---4-2-4-2-|
  ------------------------4-2-4-0-2-2-4-2-4->4<->4<--->4<->4<---4-2-4-0-|
  ------------------------2-0-2---0-0-2-0-2->2<->2<--->2<->2<---2-0-2---|
PM                                          .......   .......
TP **********************

  -------------------------|
  -------------------------|
  -2-2-2-4-4-4-4-----------|
  -2-2-2-4-4-4-4-2---2---2-|
  -0-0-0-2-2-2-2-2---2---2-|
  ---------------0---0---0-|

[Outro] - [02:16] - [02:38]
- -5-5-5-5-5-5-5-5-5-5-5-5-5-5-5-5-0-0-0-0-0-0-0-0-0-0-0-0-0-0-0-0-----|
- -5-5-5-5-5-5-5-5-5-5-5-5-5-5-5-5-0-0-0-0-0-0-0-0-0-0-0-0-0-0-0-0-----|
- -6-6-6-6-6-6-6-6-6-6-6-6-6-6-6-6-1-1-1-1-1-1-1-1-1-1-1-1-1-1-1-1-----|
- -7-7-7-7-7-7-7-7-7-7-7-7-7-7-7-7-2-2-2-2-2-2-2-2-2-2-2-2-2-2-2-2-12\-|
- -7-7-7-7-7-7-7-7-7-7-7-7-7-7-7-7-2-2-2-2-2-2-2-2-2-2-2-2-2-2-2-2-12\-|
- -5-5-5-5-5-5-5-5-5-5-5-5-5-5-5-5-0-0-0-0-0-0-0-0-0-0-0-0-0-0-0-0-12\-|

  ---------------------------------------------------5-5-5-5-5-5-5-5-5-|
  ---------------------------------------------------5-5-5-5-5-5-5-5-5-|
  -11-9-----------------11-9-14-14-14\13-13-13-13-13-6-6-6-6-6-6-6-6-6-|
  -11-9-x-x-7/9-7-2-x-x-11-9-x--x--x--x--x--x--x--x--7-7-7-7-7-7-7-7-7-|
  -9--7-x-x-7/9-7-2-x-x-9--7-12-12-12\11-11-11-11-11-7-7-7-7-7-7-7-7-7-|
  ------x-x-5/7-5-0-x-x------0--0--0--0--0--0--0--0--5-5-5-5-5-5-5-5-5-|

  -5-5-5-5-5-5-5-0-0-0-0-0-0-4-4-5-5-5-5-5-5--------------------------|
  -5-5-5-5-5-5-5-0-0-0-0-0-0-x-x-x-x-x-x-x-x-5-5----------------------|
  -6-6-6-6-6-6-6-1-1-1-1-1-1-1-1-2-2-2-2-2-2-x-x-11\9-----------------|
  -7-7-7-7-7-7-7-2-2-2-2-2-2-0-0-0-0-0-0-0-0-2-2-x--x-x-x-7/9-7-2-x-x-|
  -7-7-7-7-7-7-7-2-2-2-2-2-2-----------------0-0-9-\7-x-x-7/9-7-2-x-x-|
  -5-5-5-5-5-5-5-0-0-0-0-0-0---------------------0--0-x-x-5/7-5-0-x-x-|

  ------6--6--6--6--6-------|
  ------10-10-10-10-10------|
  -11-9-9--9--9--9--9-------|
  -11-9------------------4/-|
  -9--7------------------4/-|
  -----------------------2/-|


3.) [Miss Murder] - [03:15]
Tuning: D# G# C# F# A# D#

[Intro] - [00:00] - [00:27]
- ------0~-----------------------------------------------------------|
- -0-0-1~--------------------------------------------5-55-3-33-------|
- -2-2~-----------------------------------------5-55-7-77-5-55-33-33-|
- -2-2~----<2><3><4><6><7><8><9><7><5><4><3><2>-7-77-7-77-5-55-55-55-|
- -0-0~-----------------------------------------7-77-5-55-3-33-55-55-|
- ----------------------------------------------5-55-5-55-3-33-33-33-|

  ------------------------------------------------------------------------|
  ------5-55-3-33-------------------5-55-3-33-----------------------------|
  -5-55-7-77-5-55-33-----------5-55-7-77-5-55-33-33-----------------------|
  -7-77-7-77-5-55-55-----------7-77-7-77-5-55-55-55-3-3-33-33-22-22-22-22-|
  -7-77-5-55-3-33-55-----------7-77-5-55-3-33-55-55-3-3-33-33-22-22-22-22-|
  -5-55-5-55-3-33-33-<3><3><3>-5-55-5-55-3-33-33-33-1-1-11-11-00-00-00-00-|
PM                                                  ...

  -----------------------------------------------------------|
  -----------------------------------------------------------|
  ----9-9-10--9-9----------------9-9-10--9-9-----------------|
  -7-7-7-----7-7-7-5----------7-7-7-----7-7-7-5--------------|
  -0----------------<5><5><5>-0----------------<5><5><5><5~>-|
  -----------------------------------------------------------|
PM .                          .

[Verse 1 Bass] - [00:27] - [00:40]

[Verse 1 Guitar] - [00:40] - [00:53]
- ------------------------------------------------------------------|
- ------------------------------------------------------------------|
- ------------------------------------------------------------------|
- -7-7-7-77--7-7-7-77--5-5-5-55--2-2-2-22--7-7-7-77--7-7-7-77--5-55-|
- -7-7-7-77--7-7-7-77--5-5-5-55--2-2-2-22--7-7-7-77--7-7-7-77--5-55-|
- -5-5-5-55--5-5-5-55--3-3-3-33--0-0-0-00--5-5-5-55--5-5-5-55--3-33-|
PM   ......    ......    ......    ......    ......    ......    ..

  ------|
  ------|
  ------|
  -5~-2-
  -5~-2-
  -3~-0-

[Chorus 1] - [00:53] - [01:06]
- ---------------------------------------------------------------------|
- ------5-55-3-33-------------5-55-3-33-------------------5-55-3-33----|
- -5-55-7-77-5-55-33-33--5-55-7-77-5-55-33-----------5-55-7-77-5-55-33-|
- -7-77-7-77-5-55-55-55--7-77-7-77-5-55-55-----------7-77-7-77-5-55-55-|
- -7-77-5-55-3-33-55-55--7-77-5-55-3-33-55-----------7-77-5-55-3-33-55-|
- -5-55-5-55-3-33-33-33--5-55-5-55-3-33-33-<3><3><3>-5-55-5-55-3-33-33-|

  --------------------------|
  --------------------------|
  -33-----------------------|
  -55-3-3-33-33-22-22-22-22-|
  -55-3-3-33-33-22-22-22-22-|
  -33-1-1-11-11-00-00-00-00-|
PM    ...

[Fill] - [01:06] - [01:19]
- ---------------------------------------------------------------------|
- -------1------------3---------------------------5-------------1------|
- -222222-22222-222222-22222-000000-4-00000---------------222222-22222-|
- ------------------------------------------222222-22222---------------|
- ---------------------------------------------------------------------|
- ---------------------------------------------------------------------|
PM ...... ..... ...... ..... ......   ..... ...... .....  ...... .....

  ---------------------------------------------|
  -------1--1h3-3----------------5-5-5-5-5-5-5-|
  -222222-22------000000-4-00000-x-x-x-x-x-x-x-|
  -------------------------------2-2-2-2-2-2-2-|
  -------------------------------0-0-0-0-0-0-0-|
  ---------------------------------------------|

[Verse 2 Bass] - [01:19] - [01:27]

[Fill 2] - [01:27] - [01:33]
- -12~-13~-10~-----|
- -------------12~-|
- -----------------|
- -----------------|
- -----------------|
- -----------------|

[Verse 2 Guitar] - [01:33] - [01:47]
- ------------------------------------------------------------------|
- ------------------------------------------------------------------|
- ------------------------------------------------------------------|
- -7-7-7-77--7-7-7-77--5-5-5-55--2-2-2-22--7-7-7-77--7-7-7-77--5-55-|
- -7-7-7-77--7-7-7-77--5-5-5-55--2-2-2-22--7-7-7-77--7-7-7-77--5-55-|
- -5-5-5-55--5-5-5-55--3-3-3-33--0-0-0-00--5-5-5-55--5-5-5-55--3-33-|
PM   ......    ......    ......    ......    ......    ......    ..

  ------|
  ------|
  ------|
  -5~-2-
  -5~-2-
  -3~-0-

[Chorus 2] - [01:47] - [02:00]
- ---------------------------------------------------------------------|
- ------5-55-3-33-------------5-55-3-33-------------------5-55-3-33----|
- -5-55-7-77-5-55-33-33--5-55-7-77-5-55-33-----------5-55-7-77-5-55-33-|
- -7-77-7-77-5-55-55-55--7-77-7-77-5-55-55-----------7-77-7-77-5-55-55-|
- -7-77-5-55-3-33-55-55--7-77-5-55-3-33-55-----------7-77-5-55-3-33-55-|
- -5-55-5-55-3-33-33-33--5-55-5-55-3-33-33-<3><3><3>-5-55-5-55-3-33-33-|

  --------------------------|
  --------------------------|
  -33-----------------------|
  -55-3-3-33-33-22-22-22-22-|
  -55-3-3-33-33-22-22-22-22-|
  -33-1-1-11-11-00-00-00-00-|
PM    ...

[Bridge] - [02:22] - [02:47]
- -------------------------------------------------------------------|
- -------------------------------------------------------------------|
- ------9---8------------------9---8----9--9--------9---8------------|
- --7----7-7-7-------------7----7-7-7---10-10---7----7-7-7-----------|
- -0-0-0--0---0-----------0-0-0--0---0--10-10--0-0-0--0---0----------|
- --------------0-8-8-8-0-------------0-8--8---------------0-8-8-8-0-|

  --------------------------------------------5-5-------------------|
  --------------------------------------------5-5----Distortion-Now-|
  ------9---8----9--9--------9---8------------5-5-------------------|
  --7----7-7-7---10-10---7----7-7-7-----------7-7----7-7-7-7-7-7-7--|
  -0-0-0--0---0--10-10--0-0-0--0---0----------7-7----7-7-7-7-7-7-7--|
  -------------0-8--8---------------0-8-8-8-0-5-5----5-5-5-5-5-5-5--|
PM                                                   .....

  -------------------------------------------------------------------|
  -------------------------------------------------------------------|
  ------9---8------------------9---8----9--9--------9---8------------|
  --7----7-7-7-------------7----7-7-7---10-10---7----7-7-7-----------|
  -0-0-0--0---0-----------0-0-0--0---0--10-10--0-0-0--0---0----------|
  --------------0-8-8-8-0-------------0-8--8---------------0-8-8-8-0-|
PM                                             . ... ... ...

  -5-5----0-00-00-00-00-00-00-00-0-00---------------------------------|
  -5-5----0-00-00-00-00-00-00-00-0-00---------------------------------|
  -5-5----0-00-00-00-00-00-00-00-0-00---------------------------------|
  -7-7----2-22-22-22-22-22-22-22-2-22-------7-77-5-55------------7-77-|
  -7-7----2-22-22-22-22-22-22-22-2-22--7-77-5-55-3-33-55-55-7-77-5-55-|
  -5-5----0-00-00-00-00-00-00-00-0-00--5-55-5-55-3-33-33-33-5-55-5-55-|

  --------------------------------------|
  --------------------------------------|
  --------------------------------------|
  -<9><9><9><9><9><9><5><5><5><5><5><5>-
  --------------------------------------|
  --------------------------------------|

[Chorus 3] - [02:47] - [03:15]
- ---------------------------------------------------------------------|
- ------5-55-3-33-------------5-55-3-33-------------------5-55-3-33----|
- -5-55-7-77-5-55-33-33--5-55-7-77-5-55-33-----------5-55-7-77-5-55-33-|
- -7-77-7-77-5-55-55-55--7-77-7-77-5-55-55-----------7-77-7-77-5-55-55-|
- -7-77-5-55-3-33-55-55--7-77-5-55-3-33-55-----------7-77-5-55-3-33-55-|
- -5-55-5-55-3-33-33-33--5-55-5-55-3-33-33-<3><3><3>-5-55-5-55-3-33-33-|

  ----------------------------------------------------------------------|
  -------------------------------5-55-3-33-------------5-55-3-33--------|
  -33-----------------------5-55-7-77-5-55-33-33--5-55-7-77-5-55-33-----|
  -55-3-3-33-33-22-22-22-22-7-77-7-77-5-55-55-55--7-77-7-77-5-55-55-----|
  -55-3-3-33-33-22-22-22-22-7-77-5-55-3-33-55-55--7-77-5-55-3-33-55-----|
  -33-1-1-11-11-00-00-00-00-5-55-5-55-3-33-33-33--5-55-5-55-3-33-33-<3>-|
PM    ...

  ---------------------------------------------------5-5-|
  -------------5-55-3-33-----------------------------5-5-|
  --------5-55-7-77-5-55-33-33-----------------------5-5-|
  --------7-77-7-77-5-55-55-55-3-3-33-33-22-22-22-22-7-7-|
  --------7-77-5-55-3-33-55-55-3-3-33-33-22-22-22-22-7-7-|
  -<3><3>-5-55-5-55-3-33-33-33-1-1-11-11-00-00-00-00-5-5-|

[Overdubbed End Bit] - [03:00] - [03:15]
- -5555-7777-88888888-4444-5555-7777-10101010-8888-5555-7777-8888-4444-|
- ---------------------------------------------------------------------|
- ---------------------------------------------------------------------|
- ---------------------------------------------------------------------|
- ---------------------------------------------------------------------|
- ---------------------------------------------------------------------|
TP *******************************************************************

  -5~-4~-5-5-|
  -------5-5-|
  -------5-5-|
  -------7-7-|
  -------7-7-|
  -------5-5-|


4.) [Summer Shudder] - [03:07]
Tuning: C# G# C# F# A# D#

[Noises] - [00:00] - [00:14]

[Intro/Verse 1] - [00:14] - [00:36]
                               V                                 V
- ------------------------------------------------------------------|
- ------------------------------------------------------------------|
- -------7----------------9p7------------7----------------9p7h9-----|
- -7/9-9-7-9-7/9-12\9-9-0~----x7~--7/9-9-7-9-7/9-12\9-9-0~------x7~-|
- -7/9-9-5-9-7/9-12\9-9-0~----x7~--7/9-9-5-9-7/9-12\9-9-0~------x7~-|
- -7/9-9---9-7/9-12\9-9-0~----x7~--7/9-9---9-7/9-12\9-9-0~------x7~-|

                                    V
  --------------<7>-------------------------------------------------|
  --------------<7>-------------------------------------------------|
  --------------<7>------------9p7-------------7--------------------|
  -7/9-9-12\9-9----7/9-12\9-0~-----x7~---7/9-9-7-9-7/9-12\9-9-0-0-0-|
  -7/9-9-12\9-9----7/9-12\9-0~-----x7~---7/9-9-5-9-7/9-12\9-9-0-0-0-|
  -7/9-9-12\9-9----7/9-12\9-0~-----x7~---7/9-9---9-7/9-12\9-9-0-0-0-|
PM                                                            .....

  -----------------------|
  -----------------------|
  -----------------------|
  -0-0-0-0-x-x-x-x-x-x-x-|
  -0-0-0-0-x-x-x-x-x-x-x-|
  -0-0-0-0-x-x-x-x-x-x-x-|
   .

[Chorus 1, Guitar 1] - [00:36] - [00:48]
                                                             V
- --------------------------------------------------------------|
- --------------------------------------------------------------|
- --------------------------------------------------------------|
- -5-5-5-5--7-7-7-7--9-9-9-9--9-9-9-9--5-5-5-5--7-7-7-7-0~--x7~-|
- -5-5-5-5--7-7-7-7--9-9-9-9--9-9-9-9--5-5-5-5--7-7-7-7-0~--x7~-|
- -5-5-5-5--7-7-7-7--9-9-9-9--9-9-9-9--5-5-5-5--7-7-7-7-0~--x7~-|

[Chorus 1, Guitar 2] - [00:37] - [00:48]
- --------------------------------------------------------------|
- --------------10h11p10----------------------------------------|
- -11-11-11-11----------12p11~--These two scores are not in any-|
- -x--x--x--x-------------------way lined up, just so you know.-|
- -9--9--9--9---------------------------------------------------|
- -0--0--0--0---------------------------------------------------|

[Bridge 1] - [00:48] - [00:59]
- ----------------------------------------------------------------------|
- ----------------------------------------------------------------------|
- -----------------12-------11-------7/11-------------------14----------|
- -9-9-9-9-9-9-9-9----9-9-9----9-9-9-9/12-12-12-12-12-12-12----12-12-12-|
- ----------------------------------------------------------------------|
- ----------------------------------------------------------------------|
PM ...............    .....    .....      .................    ........

  -----------------------------------------------------------------------|
  -----------------------------------------------------------------------|
  -12p11-----------------------12-------11-------7-7-7-7-7-7-7-7-6-6-6-6-|
  -------14p12-9-9-9-9-9-9-9-9----9-9-9----9-9-9-9-9-9-9-0-0-0-0-0-0-0-0-|
  -----------------------------------------------------------------------|
  -----------------------------------------------------------------------|
PM             ...............    .....    .........

[Verse 2 Bass] - [00:59] - [01:07]

[Verse 2 Guitar] - [01:07] - [01:21]
- --------------------------------------------------------------------|
- -00-000-000-000--------------0--------------------------------------|
- -44-444-444-444--------------4------------11-11-11-11-9-9-9-9-12-12-|
- -----------------2h4-4-7-4-4---7/9-12\9-9-0~------------------------|
- -----------------0h2-2-5-2-2---7/9-12\9-9-0~------------------------|
- -------------------------------7/9-12\9-9-0~------------------------|

  -------------------------------------------------------------------|
  -------------------------------------------------------------------|
  -12-12-11-11-11-11---------7-7------------------------------Flange-|
  -------------------7/9-9-9-7-7-9-9-7/9-12\9-9-0-0-0-0-0-0-0--Here--|
  -------------------7/9-9-9-5-5-9-9-7/9-12\9-9-0-0-0-0-0-0-0--------|
  -------------------7/9-9-9-----9-9-7/9-12\9-9-0-0-0-0-0-0-0--------|
PM                                              .......

[Chorus 2, Guitar 1] - [01:21] - [01:44]
- -------------------------------------------------------------------|
- -------------------------------------------------------------------|
- -------------------------------------------------------------------|
- -5-5-5-5--7-7-7-7--9-9-9-9--9-9-9-9--5-5-5-5--7-7-7-7--9-9-9-9-9-9-|
- -5-5-5-5--7-7-7-7--9-9-9-9--9-9-9-9--5-5-5-5--7-7-7-7--9-9-9-9-9-9-|
- -5-5-5-5--7-7-7-7--9-9-9-9--9-9-9-9--5-5-5-5--7-7-7-7--9-9-9-9-9-9-|

  ------------------------------------------------------------------|
  ------------------------------------------------------------------|
  ------------------------------------------------------------------|
  -9-9-0-0-0-0-0-0-0-0--5-5-5-5--7-7-7-7--9-9-9-9--9-9-9-9--5-5-5-5-|
  -9-9-0-0-0-0-0-0-0-0--5-5-5-5--7-7-7-7--9-9-9-9--9-9-9-9--5-5-5-5-|
  -9-9-0-0-0-0-0-0-0-0--5-5-5-5--7-7-7-7--9-9-9-9--9-9-9-9--5-5-5-5-|

                 V
  -----------------|
  -----------------|
  -----------------|
  -7-7-7-7--0~--x7-|
  -7-7-7-7--0~--x7-|
  -7-7-7-7--0~--x7-|

[Chorus 2, Guitar 2] - [01:22] - [01:44]
- ---------------------------------------------|
- --------------10h11p10-----------------------|
- -11-11-11-11----------12p11~-----9p7h9p7/11~-|
- -x--x--x--x----------------------------------|
- -9--9--9--9----------------------------------|
- -0--0--0--0----------------------------------|

[Bridge 2, Guitar 1] - [01:44] - [02:18]
- ----------------------------------------------------------------------|
- ----------------------------------------------------------------------|
- -----------------12-------11-------7/11-------------------14----------|
- -9-9-9-9-9-9-9-9----9-9-9----9-9-9-9/12-12-12-12-12-12-12----12-12-12-|
- ----------------------------------------------------------------------|
- ----------------------------------------------------------------------|
PM ...............    .....    .....      .................    ........

  -----------------------------------------------------------------------|
  -----------------------------------------------------------------------|
  -12p11-----------------------12-------11-------7-7-7-7-7-7-7-7-6-6-6-6-|
  -------14p12-9-9-9-9-9-9-9-9----9-9-9----9-9-9-9-9-9-9-0-0-0-0-0-0-0-0-|
  -----------------------------------------------------------------------|
  -----------------------------------------------------------------------|
PM             ...............    .....    .........

  ---------------------------------------------------------------------|
  ---------------------------------------------------------------------|
  ---------------------------------------------------------------------|
  -0-0-0-0--7~-9-9-9-9--7~-5-5-5-5-5-5-5-5-7-7-7-7-7-7-7-7-9-9-9-9-9-9-|
  -0-0-0-0--7~-9-9-9-9--7~-5-5-5-5-5-5-5-5-7-7-7-7-7-7-7-7-9-9-9-9-9-9-|
  -0-0-0-0--7~-9-9-9-9--7~-5-5-5-5-5-5-5-5-7-7-7-7-7-7-7-7-9-9-9-9-9-9-|

  ---------------------------------------------------------------------|
  ---------------------------------------------------------------------|
  ---------------------------------------------------------------------|
  -9-9-5-5-5-5-5-5-5-5-0-0-0-0--7~-9-9-9-9--7~-5-5-5-5-5-5-5-5-7-7-7-7-|
  -9-9-5-5-5-5-5-5-5-5-0-0-0-0--7~-9-9-9-9--7~-5-5-5-5-5-5-5-5-7-7-7-7-|
  -9-9-5-5-5-5-5-5-5-5-0-0-0-0--7~-9-9-9-9--7~-5-5-5-5-5-5-5-5-7-7-7-7-|

  -----------------------------------------|
  -----------------------------------------|
  -----------------------------------------|
  -7-7-7-7-9-9-9-9-9-9-9-9-5-5-5-5-5-5-5-5-|
  -7-7-7-7-9-9-9-9-9-9-9-9-5-5-5-5-5-5-5-5-|
  -7-7-7-7-9-9-9-9-9-9-9-9-5-5-5-5-5-5-5-5-|

[Bridge 2, Guitar 2] - [01:56] - [02:18]
- --------------------------------------------------------------------|
- --------------------------------------------------------------------|
- -7-7-7-7-7-7-7-7--9-9-9-9-9/11-11-11-11-11-11-11-11-11--11-11-------|
- --------------------------------------------------------------12-12-|
- --------------------------------------------------------------------|
- --------------------------------------------------------------------|

  --------------------------------------9-9-9-9-9/10-10-10-14-14-14-14-|
  -10-10-------------------10-10---------------------------------------|
  -------------11-11---------------------------------------------------|
  -------12-12-------12-12-------12-12---------------------------------|
  ---------------------------------------------------------------------|
  ---------------------------------------------------------------------|

  -14-14-14-14--------------------------------------------------------|
  --------------------------------------------------------------------|
  --------------7-7-7-7-7-7-7-7--9-9-9-9-9/11-11-11-11-11-11-11-11-11-|
  --------------------------------------------------------------------|
  --------------------------------------------------------------------|
  --------------------------------------------------------------------|

  -------------------------------------------------9-9-9-9-9/10-10-14-|
  -------------10-10-------------------10-10--------------------------|
  -11-11-------------------11-11--------------------------------------|
  -------12-12-------12-12-------12-12-------12-12--------------------|
  --------------------------------------------------------------------|
  --------------------------------------------------------------------|

  -14-14-14-14-14-14-14-|
  ----------------------|
  ----------------------|
  ----------------------|
  ----------------------|
  ----------------------|

[Fill] - [02:18] - [02:29]
- -14~-15-12~-------17~-|
- -----------14-15~-----|
- ----------------------|
- ------Flange-On.------|
- ----------------------|
- ----------------------|

[Singing] - [02:29] - [02:40]

[Outro, Guitar 1] - [02:40] - [03:07]
- -------------------------------------------------------------------|
- -------------------------------------------------------------------|
- -------------------------------------------------------------------|
- -5-5-5-5--7-7-7-7--9-9-9-9--9-9-9-9--5-5-5-5--7-7-7-7--9-9-9-9-9-9-|
- -5-5-5-5--7-7-7-7--9-9-9-9--9-9-9-9--5-5-5-5--7-7-7-7--9-9-9-9-9-9-|
- -5-5-5-5--7-7-7-7--9-9-9-9--9-9-9-9--5-5-5-5--7-7-7-7--9-9-9-9-9-9-|

  ------------------------------------------------------------------|
  ------------------------------------------------------------------|
  ------------------------------------------------------------------|
  -9-9-0-0-0-0-0-0-0-0--5-5-5-5--7-7-7-7--9-9-9-9--9-9-9-9--5-5-5-5-|
  -9-9-0-0-0-0-0-0-0-0--5-5-5-5--7-7-7-7--9-9-9-9--9-9-9-9--5-5-5-5-|
  -9-9-0-0-0-0-0-0-0-0--5-5-5-5--7-7-7-7--9-9-9-9--9-9-9-9--5-5-5-5-|

                 V
  -----------------|
  -----------------|
  -----------------|
  -7-7-7-7--0~--x7-|
  -7-7-7-7--0~--x7-|
  -7-7-7-7--0~--x7-|

[Outro, Guitar 2] - [02:41] - [03:07]
- ---------------------------------------------|
- --------------10h11p10-----------------------|
- -11-11-11-11----------12p11~-----9p7h9p7/11~-|
- -x--x--x--x----------------------------------|
- -9--9--9--9----------------------------------|
- -0--0--0--0----------------------------------|


5.) [The Interview] - [04:18]
Tuning: D# G# C# F# A# D#

[Intro/Verse 1] - [00:00] - [00:56]
- ------------------------------------3--3--2-------------------------|
- ----------------------------------0---0--0--------------------------|
- --------------------------------------------------------------------|
- -0-0-0-0-0-0-0-0-0-0-0-0-0-0-0-0---0-0--0---0-0-0-0-0-0-0-0-0-0-0-0-|
- --------------------------------------------------------------------|
- --------------------------------------------------------------------|

  ------------3--3--2------------------------------------3--3--2-----|
  ----------0---0--0-----------------------------------0---0--0------|
  -------------------------------------------------------------------|
  -0-0-0-0---0-0--0---0-0-0-0-0-0-0-0-0-0-0-0-0-0-0-0---0-0--0---0-0-|
  -------------------------------------------------------------------|
  -------------------------------------------------------------------|

  ---------------------------------3--3--2---------------------------|
  -------------------------------0---0--0----------------------------|
  -------------------------------------------------------------------|
  --0-0-0-0-0-0-0-0-0-0-0-0-0-0---0-0--0---0-0-0-0-0-0-0-0-0-0-0-0-0-|
  -------------------------------------------------------------------|
  -------------------------------------------------------------------|

  ----------3--3--2------------------------------------3--3--2---------|
  --------0---0--0-----------------------------------0---0--0----------|
  ---------------------------------------------------------------------|
  -0-0-0---0-0--0---0-0-0-0-0-0-0-0-0-0-0-0-0-0-0-0---0-0--0---0-0-0-0-|
  ---------------------------------------------------------------------|
  ---------------------------------------------------------------------|

  ----------------------------1---1--------------------------3-3-2~-|
  ------------------------------------2---------------------0-0-0---|
  ------------------------------------------------------------------|
  -0-0-0-0-0-0-0-0-0-0-0-0------------------------------------------|
  -------------------------0-0-0-0-0-0-0-0-0-0-0-0-0-0-0-0----------|
  ------------------------------------------------------------------|

[Verse 2] - [00:56] - [01:23]
- ------------------------------------3--3--2-------------------------|
- ----------------------------------0---0--0--------------------------|
- --------------------------------------------------------------------|
- -0-0-0-0-0-0-0-0-0-0-0-0-0-0-0-0---0-0--0---0-0-0-0-0-0-0-0-0-0-0-0-|
- --------------------------------------------------------------------|
- --------------------------------------------------------------------|

  ------------3--3--2------------------------------------1---1--------|
  ----------0---0--0---------------------------------------------2----|
  --------------------------------------------------------------------|
  -0-0-0-0---0-0--0---0-0-0-0-0-0-0-0-0-0-0-0-0-0-0-0-----------------|
  ----------------------------------------------------0-0-0-0-0-0-0-0-|
  --------------------------------------------------------------------|

  ----------0~---------------------------3-3-2~-|
  ------------------------2~------------0-0-0---|
  ----------------------------------------------|
  ----------------------------------------------|
  -0-0-0-0-0-0-0-0-0-0-0-0-0-0-0-0-0-0-0--------|
  ----------------------------------------------|

[Chorus] - [01:23] - [01:51]
- -----------------------------------------------------------------|
- -----------------------------------------------------------------|
- -4-4-4-4-4-4-4-4-------------------------------------------------|
- -4-4-4-4-4-4-4-4-4-4-4-4-4-4-4-4-5-5-5-5-5-5-5-5-5-5-5-5-5-5-5-5-|
- -2-2-2-2-2-2-2-2-2-2-2-2-2-2-2-2-5-5-5-5-5-5-5-5-5-5-5-5-5-5-5-5-|
- -----------------3-3-3-3-3-3-3-3-3-3-3-3-3-3-3-3-3-3-3-3-3-3-3-3-|

  ---------------------------------------------------------------------|
  ---------------------------------------------------------------------|
  ---------------------------------11-11--9-9-9--6-6-6--7-7-7-7~-4-4-4-|
  -7-7-7-7-7-7-7-7-7-7-7-7-7-7-7-7-x--x---x-x-x--x-x-x--x-x-x-x--4-4-4-|
  -7-7-7-7-7-7-7-7-7-7-7-7-7-7-7-7-9--9---7-7-7--4-4-4--5-5-5-5~-2-2-2-|
  -5-5-5-5-5-5-5-5-5-5-5-5-5-5-5-5-0--0---0-0-0--0-0-0--0-0-0-0~-------|

  ----------------------------------------------------------------------|
  ----------------------------------------------------------------------|
  -4-4-4-4-4------------------------------------------------------------|
  -4-4-4-4-4-4-4-4-4-4-4-4-4-5-5-5-5-5-5-5-5-5-5-5-5-5-5-5-5-7-7-<7><7>-|
  -2-2-2-2-2-2-2-2-2-2-2-2-2-5-5-5-5-5-5-5-5-5-5-5-5-5-5-5-5-7-7-<7><7>-|
  -----------3-3-3-3-3-3-3-3-3-3-3-3-3-3-3-3-3-3-3-3-3-3-3-3-5-5-<5><5>-|

  --------------------------------------------------------------------|
  --------------------------------------------------------------------|
  ------------------------------------11-11--9-9-9--6-6-6--7-7-7-7----|
  -<7><7>-7-7-<7><7><7><7>-7-7-<7><7>-x--x---x-x-x--x-x-x--x-x-x-x----|
  -<7><7>-7-7-<7><7><7><7>-7-7-<7><7>-9--9---7-7-7--4-4-4--5-5-5-5\2~-|
  -<5><5>-5-5-<5><5><5><5>-5-5-<5><5>-0--0---0-0-0--0-0-0--0-0-0-0----|

[Quietness] - [01:51] - [02:03]

[Verse 3] - [02:03] - [02:29]
- ---3--3--2-----------------------------------3--3--2-----------------|
- -0---0--0----------------------------------0---0--0------------------|
- ---------------------------------------------------------------------|
- ---------------------------------------------------------------------|
- --2-2--2--2-2-2-2-2-2-2-2-2-2-2-2-2-2-2-2---2-2--2---2-2-2-2-2-2-2-2-|
- ---------------------------------------------------------------------|

  --------------------3--3--2-----------------------------------------|
  ------------------0---0--0------------------------------------------|
  --------------------------------------------------------------------|
  --------------------------------------------------------------------|
  -2-2-2-2-2-2-2-2---2-2--2---2-2-2-2-2-2-2-2-2-2-2-2-2-2-2-2-0-0-0-0-|
  --------------------------------------------------------------------|

  ----1---1----------------------0---0------------------3-3-2~-|
  ------------2----------------3--3---3-2~-------------0-0-----|
  -------------------------------------------------------------|
  -------------------------------------------------------------|
  -0-0-0-0-0-0-0-0-0-0-0-0-0-0--0--0---0-0-0-0-0-0-0-0---------|
  -------------------------------------------------------------|

[Outro] - [02:29] - [03:21]
- -----------------------------------------------------------------|
- -----------------------------------------------------------------|
- -4-4-4-4-4-4-4-4-------------------------------------------------|
- -4-4-4-4-4-4-4-4-4-4-4-4-4-4-4-4-5-5-5-5-5-5-5-5-5-5-5-5-5-5-5-5-|
- -2-2-2-2-2-2-2-2-2-2-2-2-2-2-2-2-5-5-5-5-5-5-5-5-5-5-5-5-5-5-5-5-|
- -----------------3-3-3-3-3-3-3-3-3-3-3-3-3-3-3-3-3-3-3-3-3-3-3-3-|

  ---------------------------------------------------------------------|
  ---------------------------------------------------------------------|
  ---------------------------------11-11--9-9-9--6-6-6--7-7-7-7~-4-4-4-|
  -7-7-7-7-7-7-7-7-7-7-7-7-7-7-7-7-x--x---x-x-x--x-x-x--x-x-x-x--4-4-4-|
  -7-7-7-7-7-7-7-7-7-7-7-7-7-7-7-7-9--9---7-7-7--4-4-4--5-5-5-5~-2-2-2-|
  -5-5-5-5-5-5-5-5-5-5-5-5-5-5-5-5-0--0---0-0-0--0-0-0--0-0-0-0~-------|

  ----------------------------------------------------------------------|
  ----------------------------------------------------------------------|
  -4-4-4-4-4------------------------------------------------------------|
  -4-4-4-4-4-4-4-4-4-4-4-4-4-5-5-5-5-5-5-5-5-5-5-5-5-5-5-5-5-7-7-<7><7>-|
  -2-2-2-2-2-2-2-2-2-2-2-2-2-5-5-5-5-5-5-5-5-5-5-5-5-5-5-5-5-7-7-<7><7>-|
  -----------3-3-3-3-3-3-3-3-3-3-3-3-3-3-3-3-3-3-3-3-3-3-3-3-5-5-<5><5>-|

  ---------------------------------------------------------{5}{4}--|
  -----------------------------------------------------------------|
  ------------------------------------11-11--9-9-9--2-2-2----------|
  -<7><7>-7-7-<7><7><7><7>-7-7-<7><7>-x--x---x-x-x--x-x-x----------|
  -<7><7>-7-7-<7><7><7><7>-7-7-<7><7>-9--9---7-7-7--0-0-0----------|
  -<5><5>-5-5-<5><5><5><5>-5-5-<5><5>-0--0---0-0-0--0-0-0----------|

  -----------------------------------------------------------------|
  -----------------------------------------------------------------|
  -------------14-14-14-14-14\11-11-11-11-11-------------6-6-2-2-2-|
  -5-5-5-5-5-5-x--x--x--x--x--x--x--x--x--x--7-7-7-7-7-7-x-x-x-x-x-|
  -5-5-5-5-5-5-12-12-12-12-12\9--9--9--9--9--7-7-7-7-7-7-4-4-0-0-0-|
  -3-3-3-3-3-3-0--0--0--0--0--0--0--0--0--0--5-5-5-5-5-5-0-0-0-0-0-|

  -------------------------------------------------------------------|
  -------------------------------------------------------------------|
  -2-2-6-6-6-4-4-4-4-4-4-4-4-4-4-4-4-6-6-6-6-------------14-14-14-14-|
  -x-x-x-x-x-4-4-4-4-4-4-4-4-4-4-4-4-x-x-x-x-5-5-5-5-5-5-x--x--x--x--|
  -0-0-4-4-4-2-2-2-2-2-2-2-2-2-2-2-2-4-4-4-4-5-5-5-5-5-5-12-12-12-12-|
  -0-0-0-0-0-------------------------0-0-0-0-3-3-3-3-3-3-0--0--0--0--|

  -------------------------------------------------------------------|
  -------------------------------------------------------------------|
  -14\11-11-11-11-11-------------6-6-2-2-2-2-2-6-6-6-4-4-4-4-4-4-4-4-|
  -x--x--x--x--x--x--7-7-7-7-7-7-x-x-x-x-x-x-x-x-x-x-4-4-4-4-4-4-4-4-|
  -12\9--9--9--9--9--7-7-7-7-7-7-4-4-0-0-0-0-0-4-4-4-2-2-2-2-2-2-2-2-|
  -0--0--0--0--0--0--5-5-5-5-5-5-0-0-0-0-0-0-0-0-0-0-----------------|

  -----------------------------------------------------------------|
  -----------------------------------------------------------------|
  -4-4-4-4-6-6-6-6---------------------------------11-11--9-9-9--6-|
  -4-4-4-4-x-x-x-x-5-5-5-5-5-5-5-5-5-5-5-5-5-5-5-5-x--x---x-x-x--x-|
  -2-2-2-2-4-4-4-4-5-5-5-5-5-5-5-5-5-5-5-5-5-5-5-5-9--9---7-7-7--4-|
  ---------0-0-0-0-3-3-3-3-3-3-3-3-3-3-3-3-3-3-3-3-0--0---0-0-0--0-|

  --------------------------------------------------------|
  --------------------------------------------------------|
  -6-6--7-7-7-11-11-12-12-9-9-9--12-12-12--18-18-18-18----|
  -x-x--x-x-x-x--x--x--x--x-x-x--x--x--x---x--x--x--x--9~-|
  -4-4--5-5-5-9--9--10-10-7-7-7--10-10-10--16-16-16-16-9~-|
  -0-0--0-0-0-0--0--0--0--0-0-0--0--0--0---0--0--0--0--7~-|

[Piano] - [03:21] - [04:18]


6.) [Love Like Winter] - [02:47]
Tuning: D# G# C# F# A# D#

Okay, there's lotsa weird noises in this song so i tabbed how yu can
make some of them.

[Intro/Noise] - [00:00] - [00:22]
- -------------------------------------|
- -------------------------------------|
- -7-7-7-7--7-7-7-7--7-7-7-7--7-7-7-7--|
- -------------------------------------|
- -------------------------------------|
- -------------------------------------|
PM ..................................

[Verse 1] - [00:22] - [00:38]
- ---------------------------------------------------------------------|
- ---------------------------------------------------------------------|
- ---------------------------------------------------------------------|
- ---------------------------------------------------------------------|
- -----------------------------------------------------------------2-2-|
- -3-3-3-3-3-3-3-3-3-3-3-3-3-3-3-3-3-3-3-3-3-3-3-3-3-3-3-3-3-3-3-3-----|

  ---------------------------------------------------------------------|
  ---------------------------------------------------------------------|
  ---------------------------------------------------------------------|
  ---------------------------------------------------------------------|
  -2-2-2-2-2-2-2-2-2-2-2-2-2-2-2-2-2-2-2-2-2-2-2-2-2-2-2-2-2-2---------|
  -------------------------------------------------------------3-3-3-3-|

  ---------------------------------------------------------------------|
  ---------------------------------------------------------------------|
  ---------------------------------------------------------------------|
  ---------------------------------------------------------------------|
  ---------------------------------------------------------0-0-0-0-0-0-|
  -3-3-3-3-3-3-3-3-3-3-3-3-3-3-3-3-3-3-3-3-3-3-3-3-3-3-3-3-------------|

  -----------------------------------------------------|
  -----------------------------------------------------|
  -----------------------------------------------------|
  -----------------------------------------------------|
  -0-0-0-0-0-0-0-0-0-0-0-0-0-0-0-0-0-0-0-0-0-0-0-0-0-0-|
  -----------------------------------------------------|

[Chorus 1] - [00:38] - [01:02]
- -------------------------------------------------------------------|
- -------------------------------------------------------------------|
- -------------------------------------------------7-7-7-7-----------|
- -9-9-9-9-9-9-9-9-5-5-5-5-5-5-5-5-7x7x7x7x7x7x7x7-7-7-7-7-7-7-7-7-9-|
- -9-9-9-9-9-9-9-9-5-5-5-5-5-5-5-5-7x7x7x7x7x7x7x7-5-5-5-5-7-7-7-7-9-|
- -7-7-7-7-7-7-7-7-3-3-3-3-3-3-3-3-5x5x5x5x5x5x5x5---------5-5-5-5-7-|

  -----------------------------------------------------------------|
  -----------------------------------------------------------------|
  -------------------------------------------------7-7-7-7---------|
  -9-9-9-9-9-9-9-9-5-5-5-5-5-5-5-5-7-7-7-7-7-7-7-7-7-7-7-7-7-7-7-7-|
  -9-9-9-9-9-9-9-9-5-5-5-5-5-5-5-5-7-7-7-7-7-7-7-7-5-5-5-5-7-7-7-7-|
  -7-7-7-7-7-7-7-7-3-3-3-3-3-3-3-3-5-5-5-5-5-5-5-5---------5-5-5-5-|

  -------------------------------------------------------------------|
  -------------------------------------------------------------------|
  -------------------------------------------------7-7-7-7-----------|
  -9-9-9-9-9-9-9-9-5-5-5-5-5-5-5-5-7x7x7x7x7x7x7x7-7-7-7-7-7-7-7-7-9-|
  -9-9-9-9-9-9-9-9-5-5-5-5-5-5-5-5-7x7x7x7x7x7x7x7-5-5-5-5-7-7-7-7-9-|
  -7-7-7-7-7-7-7-7-3-3-3-3-3-3-3-3-5x5x5x5x5x5x5x5---------5-5-5-5-7-|

  -----------------------------------------------------------------|
  -----------------------------------------------------------------|
  -------------------------------------------------7-7-7-7---------|
  -9-9-9-9-9-9-9-9-5-5-5-5-5-5-5-5-7-7-7-7-7-7-7-7-7-7-7-7-7-7-7-7-|
  -9-9-9-9-9-9-9-9-5-5-5-5-5-5-5-5-7-7-7-7-7-7-7-7-5-5-5-5-7-7-7-7-|
  -7-7-7-7-7-7-7-7-3-3-3-3-3-3-3-3-5-5-5-5-5-5-5-5---------5-5-5-5-|
PM                                   .............

  -------------------------------------------------------|
  -------------------------------------------------------|
  -------------------------------------------------------|
  -9-9--9-5-5--5-7-7--7-7-7--7-9-9--9-5-5--5-7-7--7-7-7--|
  -9-9--9-5-5--5-7-7--7-7-7--7-9-9--9-5-5--5-7-7--7-7-7--|
  -7-7--7-3-3--3-5-5--5-5-5--5-7-7--7-3-3--3-5-5--5-5-5--|

[Fill/Noise] - [01:02] - [01:04]
- ---------------------------------|
- ---------------------------------|
- ---------------------------------|
- ---------5p0-------------5p0-----|
- -------------9p0-------------9p0-|
- -7p0-7p0---------7p0-7p0---------|

[Verse 2] - [01:04] - [01:36]
- ---------------------------------------------------------------------|
- ---------------------------------------------------------------------|
- ---------------------------------------------------------------------|
- ---------------------------------------------------------------------|
- -----------------------------------------------------------------2-2-|
- -3-3-3-3-3-3-3-3-3-3-3-3-3-3-3-3-3-3-3-3-3-3-3-3-3-3-3-3-3-3-3-3-----|

  ---------------------------------------------------------------------|
  ---------------------------------------------------------------------|
  ---------------------------------------------------------------------|
  ---------------------------------------------------------------------|
  -2-2-2-2-2-2-2-2-2-2-2-2-2-2-2-2-2-2-2-2-2-2-2-2-2-2-2-2-2-2---------|
  -------------------------------------------------------------3-3-3-3-|

  ---------------------------------------------------------------------|
  ---------------------------------------------------------------------|
  ---------------------------------------------------------------------|
  ---------------------------------------------------------------------|
  ---------------------------------------------------------0-0-0-0-0-0-|
  -3-3-3-3-3-3-3-3-3-3-3-3-3-3-3-3-3-3-3-3-3-3-3-3-3-3-3-3-------------|

  --------------------------------------------------------------------|
  --------------------------------------------------------------------|
  --------------------------------------------------------------------|
  --------------------------------------------------------------------|
  -0-0-0-0-0-0-0-0-0-0-0-0-0-0-0-0-0-0-0-0-0-0-0-0-0-0----2-2-2-2-2-2-|
  -----------------------------------------------------3~-------------|

  ---------------------------------------------------------------------|
  ---------------------------------------------------------------------|
  ---------------------------------------------------------------------|
  ---------------------------------------------------------------------|
  -2-2-2-2-2-2-2-2-2-2-2-2-2-2-2-2-2-2-2-2-2-2-2-2-2-2-----------------|
  -----------------------------------------------------3-3-3-3-3-3-3-3-|

  ---------------------------------------------------------|
  ---------------------------------------------------------|
  -------------------------------------------------7-7-7-7-|
  ---------------------------------------------------------|
  ---------------------------------------------------------|
  -3-3-3-3-3-3-3-3-3-3-3-3-3-3-3-3-3-3-3-3-3-3-3-3---------|
PM                                                 .......

[Chorus 2] - [01:36] - [02:00]
- -------------------------------------------------------------------|
- -------------------------------------------------------------------|
- -------------------------------------------------7-7-7-7-----------|
- -9-9-9-9-9-9-9-9-5-5-5-5-5-5-5-5-7x7x7x7x7x7x7x7-7-7-7-7-7-7-7-7-9-|
- -9-9-9-9-9-9-9-9-5-5-5-5-5-5-5-5-7x7x7x7x7x7x7x7-5-5-5-5-7-7-7-7-9-|
- -7-7-7-7-7-7-7-7-3-3-3-3-3-3-3-3-5x5x5x5x5x5x5x5---------5-5-5-5-7-|

  -----------------------------------------------------------------|
  -----------------------------------------------------------------|
  -------------------------------------------------7-7-7-7---------|
  -9-9-9-9-9-9-9-9-5-5-5-5-5-5-5-5-7-7-7-7-7-7-7-7-7-7-7-7-7-7-7-7-|
  -9-9-9-9-9-9-9-9-5-5-5-5-5-5-5-5-7-7-7-7-7-7-7-7-5-5-5-5-7-7-7-7-|
  -7-7-7-7-7-7-7-7-3-3-3-3-3-3-3-3-5-5-5-5-5-5-5-5---------5-5-5-5-|

  -------------------------------------------------------------------|
  -------------------------------------------------------------------|
  -------------------------------------------------7-7-7-7-----------|
  -9-9-9-9-9-9-9-9-5-5-5-5-5-5-5-5-7x7x7x7x7x7x7x7-7-7-7-7-7-7-7-7-9-|
  -9-9-9-9-9-9-9-9-5-5-5-5-5-5-5-5-7x7x7x7x7x7x7x7-5-5-5-5-7-7-7-7-9-|
  -7-7-7-7-7-7-7-7-3-3-3-3-3-3-3-3-5x5x5x5x5x5x5x5---------5-5-5-5-7-|

  -----------------------------------------------------------------|
  -----------------------------------------------------------------|
  -------------------------------------------------7-7-7-7---------|
  -9-9-9-9-9-9-9-9-5-5-5-5-5-5-5-5-7-7-7-7-7-7-7-7-7-7-7-7-7-7-7-7-|
  -9-9-9-9-9-9-9-9-5-5-5-5-5-5-5-5-7-7-7-7-7-7-7-7-5-5-5-5-7-7-7-7-|
  -7-7-7-7-7-7-7-7-3-3-3-3-3-3-3-3-5-5-5-5-5-5-5-5---------5-5-5-5-|
PM                                   .............

  -------------------------------------------------------|
  -------------------------------------------------------|
  -------------------------------------------------------|
  -9-9--9-5-5--5-7-7--7-7-7--7-9-9--9-5-5--5-7-7--7-7-7--|
  -9-9--9-5-5--5-7-7--7-7-7--7-9-9--9-5-5--5-7-7--7-7-7--|
  -7-7--7-3-3--3-5-5--5-5-5--5-7-7--7-3-3--3-5-5--5-5-5--|

[Quiet] - [02:00] - [02:20]
During this the guitar hits the 9th fret on the high e string
(The really skinny one.) at 02:16..its just a waste of space to
tab it out..jsut to let yu kno lol.

[Outro] - [02:20] - [02:47]
- -------------------------------------------------------------------|
- -------------------------------------------------------------------|
- -------------------------------------------------7-7-7-7-----------|
- -9-9-9-9-9-9-9-9-5-5-5-5-5-5-5-5-7x7x7x7x7x7x7x7-7-7-7-7-7-7-7-7-9-|
- -9-9-9-9-9-9-9-9-5-5-5-5-5-5-5-5-7x7x7x7x7x7x7x7-5-5-5-5-7-7-7-7-9-|
- -7-7-7-7-7-7-7-7-3-3-3-3-3-3-3-3-5x5x5x5x5x5x5x5---------5-5-5-5-7-|

  -----------------------------------------------------------------|
  -----------------------------------------------------------------|
  -------------------------------------------------7-7-7-7---------|
  -9-9-9-9-9-9-9-9-5-5-5-5-5-5-5-5-7-7-7-7-7-7-7-7-7-7-7-7-7-7-7-7-|
  -9-9-9-9-9-9-9-9-5-5-5-5-5-5-5-5-7-7-7-7-7-7-7-7-5-5-5-5-7-7-7-7-|
  -7-7-7-7-7-7-7-7-3-3-3-3-3-3-3-3-5-5-5-5-5-5-5-5---------5-5-5-5-|

  -------------------------------------------------------------------|
  -------------------------------------------------------------------|
  -------------------------------------------------7-7-7-7-----------|
  -9-9-9-9-9-9-9-9-5-5-5-5-5-5-5-5-7x7x7x7x7x7x7x7-7-7-7-7-7-7-7-7-9-|
  -9-9-9-9-9-9-9-9-5-5-5-5-5-5-5-5-7x7x7x7x7x7x7x7-5-5-5-5-7-7-7-7-9-|
  -7-7-7-7-7-7-7-7-3-3-3-3-3-3-3-3-5x5x5x5x5x5x5x5---------5-5-5-5-7-|

  -----------------------------------------------------------------|
  -----------------------------------------------------------------|
  -------------------------------------------------7-7-7-7---------|
  -9-9-9-9-9-9-9-9-5-5-5-5-5-5-5-5-7-7-7-7-7-7-7-7-7-7-7-7-7-7-7-7-|
  -9-9-9-9-9-9-9-9-5-5-5-5-5-5-5-5-7-7-7-7-7-7-7-7-5-5-5-5-7-7-7-7-|
  -7-7-7-7-7-7-7-7-3-3-3-3-3-3-3-3-5-5-5-5-5-5-5-5---------5-5-5-5-|
PM                                   .............

  -------------------------------------------------------|
  -------------------------------------------------------|
  -------------------------------------------------------|
  -9-9--9-5-5--5-7-7--7-7-7--7-9-9--9-5-5--5-7-7--7-7-7--|
  -9-9--9-5-5--5-7-7--7-7-7--7-9-9--9-5-5--5-7-7--7-7-7--|
  -7-7--7-3-3--3-5-5--5-5-5--5-7-7--7-3-3--3-5-5--5-5-5--|

[Extra Noises To Play]
During the Chorus ends you here a synth play this..
- -7-5----------------7-5----------------|
- -----8-7~--8p7h8-7~-----8-7~--8p7h8-7~-|
- ---------------------------------------|
- ---------------------------------------|
- ---------------------------------------|
- ---------------------------------------|


7.) [Affliction] - [03:37]
Tuning: D# G# C# F# A# D#

[Intro] - [00:00] - [00:10]
- -------------------------------------------------------------|
- -------------------------------------------------------------|
- -------------------------------------------------------------|
- -14-14-141414-14-1414-14-14-15-15-151515-15-1515-15-15-12-12-|
- -0--0--0-0-0--0--0-0--0--0--0--0--0-0-0--0--0-0--0--0--0--0--|
- -12-12-121212-12-1212-12-12-13-13-131313-13-1313-13-13-10-10-|

  -------------------------------------------------|
  -------------------------------------------------|
  ----------------------0--0--0-0-0--0--0-0--0--0--|
  -121212-12-1212-12-12-11-11-111111-11-1111-11-11-|
  -0-0-0--0--0-0--0--0--x--x--x-x-x--x--x-x--x--x--|
  -101010-10-1010-10-10-9--9--9-9-9--9--9-9--9--9--|

[Verse 1] - [00:10] - [00:28]
- -------------------------------------------------------------|
- -------------------------------------------------------------|
- -------------------------------------------------------------|
- -14-14-141414-14-1414-14-14-15-15-151515-15-1515-15-15-12-12-|
- -0--0--0-0-0--0--0-0--0--0--0--0--0-0-0--0--0-0--0--0--0--0--|
- -12-12-121212-12-1212-12-12-13-13-131313-13-1313-13-13-10-10-|

  --------------------------------------------------------------|
  --------------------------------------------------------------|
  ----------------------0--0--0-0-0--0--0-0--0--0---------------|
  -121212-12-1212-12-12-11-11-111111-11-1111-11-11-14-14-141414-|
  -0-0-0--0--0-0--0--0--x--x--x-x-x--x--x-x--x--x--0--0--0-0-0--|
  -101010-10-1010-10-10-9--9--9-9-9--9--9-9--9--9--12-12-121212-|

  ---------------------------------------------------------------|
  ---------------------------------------------------------------|
  ---------------------------------------------------------------|
  -14-1414-14-14-15-15-151515-15-1515-15-15-12-12-121212-12-1212-|
  -0--0-0--0--0--0--0--0-0-0--0--0-0--0--0--0--0--0-0-0--0--0-0--|
  -12-1212-12-12-13-13-131313-13-1313-13-13-10-10-101010-10-1010-|

  ----------------------------------|
  ----------------------------------|
  -------14-14--14-14--14-14--14-14-|
  -12-12-x--x---x--x---x--x---x--x--|
  -0--0--12-12--12-12--12-12--12-12-|
  -10-10-0--0---0--0---0--0---0--0--|

[Bridge 1] - [00:28] - [00:37]
- --------------------------------------------------------12--11~-|
- ------------------------------------------------------10--10----|
- ----------------------------------------------------------------|
- ----------------------------------------------------------------|
- -0-14p12-14h15-15-0-0-14p12-14h15-15-0-14p12-14h15-15-----------|
- ----------------------------------------------------------------|

  ------------------------------------------------------|
  ------------------------------------------------------|
  ------------------------------------------------------|
  ------------------------------------------------------|
  -0-14p12-14h15-15-0-0-14p12-14h15-15-0-14p12-14h15-15-|
  ------------------------------------------------------|


[Chorus 1] - [00:37] - [00:55]
- --0--0--0-------------------------1---3----0--0--0---------------|
- ------------0-0--0---1-1-1-1-1---1-1-3-3-------------0-0--0------|
- ---7--7------0-0----------------2---4-------7--7------0-0--------|
- -5--5--5---5--5-5---3---3---3-------------5--5--5---5--5-5-------|
- -----------------------------------------------------------------|
- -------------------------------------------------------------1-1-|

  --------------4-4-4-4-4-4-4-4-4-|
  --------------x-x-x-x-x-x-x-x-x-|
  --------------1-1-1-1-1-1-1-1-1-|
  --------------0-0-0-0-0-0-0-0-0-|
  --------------------------------|
  -111-1-11-1-1-------------------|

[Fill 1] - [00:55] -
- -------------------------------------------------------------|
- -------------------------------------------------------------|
- -------------------------------------------------------------|
- -14-14-141414-14-1414-14-14-15-15-151515-15-1515-15-15-12-12-|
- -0--0--0-0-0--0--0-0--0--0--0--0--0-0-0--0--0-0--0--0--0--0--|
- -12-12-121212-12-1212-12-12-13-13-131313-13-1313-13-13-10-10-|

  -------------------------------------------------|
  -------------------------------------------------|
  ----------------------0--0--0-0-0--0--0-0--0--0--|
  -121212-12-1212-12-12-11-11-111111-11-1111-11-11-|
  -0-0-0--0--0-0--0--0--x--x--x-x-x--x--x-x--x--x--|
  -101010-10-1010-10-10-9--9--9-9-9--9--9-9--9--9--|

[Verse 2] - [00:55] - [01:23]
- -------------------------------------------------------------|
- -------------------------------------------------------------|
- -------------------------------------------------------------|
- -14-14-141414-14-1414-14-14-15-15-151515-15-1515-15-15-12-12-|
- -0--0--0-0-0--0--0-0--0--0--0--0--0-0-0--0--0-0--0--0--0--0--|
- -12-12-121212-12-1212-12-12-13-13-131313-13-1313-13-13-10-10-|

  --------------------------------------------------------------|
  --------------------------------------------------------------|
  ----------------------0--0--0-0-0--0--0-0--0--0---------------|
  -121212-12-1212-12-12-11-11-111111-11-1111-11-11-14-14-141414-|
  -0-0-0--0--0-0--0--0--x--x--x-x-x--x--x-x--x--x--0--0--0-0-0--|
  -101010-10-1010-10-10-9--9--9-9-9--9--9-9--9--9--12-12-121212-|

  ---------------------------------------------------------------|
  ---------------------------------------------------------------|
  ---------------------------------------------------------------|
  -14-1414-14-14-15-15-151515-15-1515-15-15-12-12-121212-12-1212-|
  -0--0-0--0--0--0--0--0-0-0--0--0-0--0--0--0--0--0-0-0--0--0-0--|
  -12-1212-12-12-13-13-131313-13-1313-13-13-10-10-101010-10-1010-|

  -------------------------------------------|
  -------------------------------------------|
  -------14-14--16-16-16--17-17-17--19-19-19-|
  -12-12-x--x---x--x--x---x--x--x---x--x--x--|
  -0--0--12-12--14-14-14--15-15-15--17-17-17-|
  -10-10-0--0---0--0---0--0---0--0--0--0--0--|

[Bridge 2] - [01:23] - [01:32]
- --------------------------------------------------------12--11~-|
- ------------------------------------------------------10--10----|
- ----------------------------------------------------------------|
- ----------------------------------------------------------------|
- -0-14p12-14h15-15-0-0-14p12-14h15-15-0-14p12-14h15-15-----------|
- ----------------------------------------------------------------|

  ------------------------------------------------------|
  ------------------------------------------------------|
  ------------------------------------------------------|
  ------------------------------------------------------|
  -0-14p12-14h15-15-0-0-14p12-14h15-15-0-14p12-14h15-15-|
  ------------------------------------------------------|

[Chorus 2] - [01:32] - [01:53]
- --0--0--0-------------------------1---3----0--0--0---------------|
- ------------0-0--0---1-1-1-1-1---1-1-3-3-------------0-0--0------|
- ---7--7------0-0----------------2---4-------7--7------0-0--------|
- -5--5--5---5--5-5---3---3---3-------------5--5--5---5--5-5-------|
- -----------------------------------------------------------------|
- -------------------------------------------------------------1-1-|

  --------------4-4-4-4-4-4-4-4-4-4-10-10-10-10-10-10-10-10-12-12-12-|
  --------------x-x-x-x-x-x-x-x-x-x-x--x--x--x--x--x--x--x--x--x--x--|
  --------------1-1-1-1-1-1-1-1-1-1-7--7--7--7--7--7--7--7--9--9--9--|
  --------------0-0-0-0-0-0-0-0-0-0-0--0--0--0--0--0--0--0--0--0--0--|
  -------------------------------------------------------------------|
  -111-1-11-1-1------------------------------------------------------|

  -12-12-12-12-12-|
  -x--x--x--x--x--|
  -9--9--9--9--9--|
  -0--0--0--0--0--|
  ----------------|
  ----------------|

[Interlude] - [01:53] - [03:33]
- ----------------------------------------------------------------|
- ----------------------------------------------------------------|
- ----------------------------------------------------------------|
- ----------------------------------------------------------------|
- ----------------------------------------------------------------|
- -5~-5-7-8-7-5-7-5\1~-1-1p0-0-0-0--5~-5-7-8-7-5-7-5\1~-1-1p0-0-0-|

  -------------------------------------------------------------|
  -------------------------------------------------------------|
  -------------------------------------------------------------|
  -------------------------------------------------------------|
  -------------------------------------------------------------|
  -0--5~-5-7-8-7-5-7-5\1~-1-1p0-0-0-0--5~-7-8-7-5-7-5\1~-1-1p0-|

  -4-4-4-4-----------------------------4-4-4/5\4-4---------------|
  -x-x-x-x-----------------------------x-x-x-x-x-x---------------|
  -1-1-1-1-----------------------------1-1-1/2\1-1---------------|
  -0-0-0-0-x5~-------------------------0-0-0-0-0-0---------------|
  ---------x5~-----------------------
Добавлено: 18.05.2012
Другие материалы по этой песне:
  • Аккорды и текст

Страница создана 18.05.2012
http://primanota.ru/afi/decemberunderground-album-chords.htm
Привет, Гость.
Предлагаем пройти революционный курс по гитаре.
Подарок от PrimaNota.Ru, забирай!