PrimaNota.ru - самый крупный в мире бесплатный архив песенных текстов, аккордов, табулатур и нот


AFI - Days Of The Pheonix - аккорды и текст, таба, бас-таба, видео

Регистрация Запомнить меня
Войти через:  Facebook Google Twitter Vk Yandex Mail.ru

AFI - Days Of The Pheonix - аккорды и текст, таба, бас-таба, видео

Печатать
Просмотров: 187
Days Of The Pheonix
AFI
		   Intro

e-----5-5-5---2-2-2---3-3-3---0-0-0---3-3-3-5-5-5-7-7-7-7
b--0-0-----0-0-----0-0-----0-0-----0-0------------0-0-0-0
g--------------------------------------------------------
d--------------------------------------------------------
a--------------------------------------------------------
E--------------------------------------------------------


Intro Solo

e---------5-2-3-5-----5-2-3-5-----5-3-2--2
b--0-3-2-3-3-----3-3-3-3-----3-3-3-3---3-0
g-----------------------------------------
d-----------------------------------------
a-----------------------------------------
E-----------------------------------------


1st Verse

e---------------------------------------------------
b---------------------------------------------------
g---------------------------------------------------      2x
d--------------------7-7-7-------2-2-2--------------
a--9-9-9-7-7-7-9-9-9-5-5-5-5-5-5-2-2-2-5-5-5-7-7-7--
E--7-7-7-5-5-5-7-7-7-------3-3-3-0-0-0-3-3-3-5-5-5--


corus

e-----------------------------
b-----------------------------
g-----------------------------
d--4-4-4-7-7-7----------------      4x
a--2-2-2-5-5-5-5-5-5-5-5-5----
E--------------3-3-3-3-3-3----


Slow guitar solo (slow)

e----------------------------
b------------3----------3----
g----0------0---0------0-----
d---4-4----4---4-4----4------
a--2------2---2------2-------
E----------------------------



After the slow solo

e------------------------------------------------------------------
b------------------------------------------------------------------
g------------------------------------------------------------------
d-------4-----4--------7-----7-0-----------------------------------
a--2-2-2-2-2-2--0-5-5-5-5-5-5--------5------5-0-------7------7-0---
E-------------------------------3-3-3--3-3-3-----5-5-5-5-5-5-------    2x





 You should lisen to the song toget it down     
Добавлено: 15.11.2013
Другие материалы по этой песне:
  • Аккорды и текст

Страница создана 02.06.2012
http://primanota.ru/afi/days-of-the-pheonix-chords.htm
Привет, Гость.
Предлагаем пройти революционный курс по гитаре.
Подарок от PrimaNota.Ru, забирай!