PrimaNota.ru - самый крупный в мире бесплатный архив песенных текстов, аккордов, табулатур и нот


AFI - Darling I Want To Destroy You - таба, видео

Регистрация Запомнить меня
Войти через:  Facebook Google Twitter Vk Yandex Mail.ru

AFI - Darling I Want To Destroy You - таба, видео

Печатать
Просмотров: 160
Авторы: David Marchand, Adam Carson, Hunter Burgan, Jade Puget

A FIRE INSIDE
Darling, I Want to Destroy You


This song is a fucking nightmare. It is not one of my best tabs,
So if you have any corrections, feel free to go with it. The main
Problems I had with this song is the poor quality of recording for
The guitars. You can barely make out whats going on under the vocals,
In the verse and the chorus. So the chorus lead, I just couldn't
Bring myself to attempt it cuz so much of it is just drowned out,
But here's the basics of the song. You go and build off of it.




INTRO
--------------------------------------------------------|
--------------------------------------------------------|
----------------12-11-9-------------12--14\11-11--77777-|
----11---9--7----0--0-0--11---9--7---0---0--0--0--00000-|
-----0---0--0---10--9-7---0---0--0--10--12\-9--9--55555-|
-----9---7--5-------------9---7--5----------------------|



---------------------|
---------------------|
---------------------|
11-12-11-14-14-14-14-|
-0--0--0--0--0--0--0-|
-9-10--9-12-12-12-12-|


-------------------------------------|
-------------------------------------|
-12-11\9-9999--------------12-14-16--|
--0--0-0-0000-11-9-7-7777---0--0--0--|
-10--9\7-7777--0-0-0-0000--10-12-14--|
---------------9-7-5-5555------------|



-----------------------------------------------------------------|
--5^7-------------------------------------------5--5^7-----------|
--6^7----7----7----7---7-666-6\4---4----4---4---6--6^7--7--7--7--|
--0---00-0-00-0-00-0-0-0-000-0---000-00-0-0-0-0--00---00-00-00---|
-----------------------------------------------------------------|
-----------------------------------------------------------------|



------------------------|
------------------7-----|
--9/11--11\9--9---7-----|
-0----00----00-00-0-----|
------------------------|
------------------------|



VERSE
-------------------------------------------------------------------|
----------------------8---8---7------------------------------------|
----2-----2-----2---0---0---0-0-------2------2-------2------0------|
------4-----4---4---------------0-------4------4---4---4------9----|
-5------5-----5-5-------------------5-----5------5-------10--------|
-------------------------------------------------------------------|



VERSE
-------------------------------------------------------------------|
---------------------------3------3------3------3------8---8---7---|
---0-----0---0-----0---------2------2------2---------0---0---0-0---|
-----7---------4-----4---0-----0------0------0----4--------------0-|
-9-----7---5-----5---5---------------------------------------------|
-------------------------------------------------------------------|



VERSE
-----------------------------------------------|
-----3-----3-----3----3----PM---8888-----------|
-------2-----2----2--------====-7777-77777777--|
--0------0-----0---0----4--5555-5555-44444444--|
-----------------------------------------------|
-----------------------------------------------|



CHORUS
----------33333333-------------------|
-33333333-33333333-77777777777777777-|
-44444444-44444444-77777777777777777-|
-44444444-55555555-77777777777777777-|
-22222222-55555555-55555555555555555-|
-22222222-33333333-55555555555555555-|



CHORUS
----------33333333------------------------------------|
-33333333-33333333-777777777777-----------------------|
-44444444-44444444-777777777777--12\11-X--11/12\11-X--|
-44444444-55555555-777777777777---X--X-X---X--X--X-X--|
-22222222-55555555-555555555555--10-\9-X---9/10\-9-X--|
-22222222-33333333-555555555555-----------------------|



CHORUS
----------33333333-------------------|
-33333333-33333333-77777777777777777-|
-44444444-44444444-77777777777777777-|
-44444444-55555555-77777777777777777-|
-22222222-55555555-55555555444444444-|
-22222222-33333333-55555555----------|



CHORUS
----------33333333--------------------|
-33333333-33333333--------------------|
-44444444-44444444----------99999999--|
-44444444-55555555-77777777777777777--|
-22222222-55555555-77777777700000000--|
-22222222-33333333-555555555----------|



-----------------------------------------------------------------|
--5^7-------------------------------------------5--5^7-----------|
--6^7----7----7----7---7-666-6\4---4----4---4---6--6^7--7--7--7--|
--0---00-0-00-0-00-0-0-0-000-0---000-00-0-0-0-0--00---00-00-00---|
-----------------------------------------------------------------|
-----------------------------------------------------------------|



------------------------|
------------------7-----|
--9/11--11\9--9---7-----|
-0----00----00-00-0-----|
------------------------|
------------------------|



VERSE
-----------------------------------------------------------------------|
---3-----3-----3---3------8---8---7------3-----3---3-----3-------------|
-----2-----2----2-------0---0---0-0--------2----2----2----2-----0------|
-0-----0-----0---0---4--------------0--0-----0---0-----0---0------9----|
-------------------------------------------------------------10--------|
-----------------------------------------------------------------------|



VERSE
---------------------------------5------------------------5--------------|
---------------------------7---7---7---7777-5^7-77-5-7-77-7-777777755555-|
---0-----0---0-----0-------7---7-----7-7777-7-7-77-7-7-77-7-777777777777-|
-----7---------4-----4---0---0---------0000-0-0-00-0-0-00-0-000000000000-|
-9-----7---5-----5---5---------------------------------------------------|
-------------------------------------------------------------------------|



VERSE
-------5---------------------------------------|
-5-7-77777777755555--88888888------------------|
-7-7-77777777777777--00000000------------------|
-0-0-00000000000000--55555555-77777777---------|
------------------------------99999999---------|
-----------------------------------------------|



CHORUS
----------33333333-------------------|
-33333333-33333333-77777777777777777-|
-44444444-44444444-77777777777777777-|
-44444444-55555555-77777777777777777-|
-22222222-55555555-55555555555555555-|
-22222222-33333333-55555555555555555-|



CHORUS
----------33333333------------------------------------|
-33333333-33333333-777777777777-----------------------|
-44444444-44444444-777777777777--12\11-X--11/12\11-X--|
-44444444-55555555-777777777777---X--X-X---X--X--X-X--|
-22222222-55555555-555555555555--10-\9-X---9/10\-9-X--|
-22222222-33333333-555555555555-----------------------|



CHORUS
----------33333333-------------------|
-33333333-33333333-77777777777777777-|
-44444444-44444444-77777777777777777-|
-44444444-55555555-77777777777777777-|
-22222222-55555555-55555555444444444-|
-22222222-33333333-55555555----------|



CHORUS
----------33333333--------------------|
-33333333-33333333--------------------|
-44444444-44444444----------99999999--|
-44444444-55555555-77777777777777777--|
-22222222-55555555-77777777700000000--|
-22222222-33333333-555555555----------|



BRIDGE
-PM----------------================-================------------------|
-=================-5555555555555555-7777777777777777-==8--------------|
-77777777777777777-6666666666666666-7777777777777777-999------9999999-|
-99999999999999999-----------------------------------------9999999999-|
--------------------------------------------------------7777777777777-|
----------------------------------------------------------------------|



BRIDGE
------7----------3--------------------------------------------------|
------7----------3---7-77-7-7---------------------------------------|
-----------------4---7-77-7-7---------------------------------------|
-9999----5-55-5------7-77-7-7-7-7-9-999--11-11-12-12-12-12-14-14-17-|
-9999----5-55-5------5-55-5-5-0-0-0-000---0--0--0--0--0--0--0--0--0-|
-7777----3-33-3------5-55-5-5-5-5-7-777---9--9-10-10-10-10-12-12-15-|



CHORUS
----------33333333-------------------|
-33333333-33333333-77777777777777777-|
-44444444-44444444-77777777777777777-|
-44444444-55555555-77777777777777777-|
-22222222-55555555-55555555555555555-|
-22222222-33333333-55555555555555555-|



CHORUS
----------33333333------------------------------------|
-33333333-33333333-777777777777-----------------------|
-44444444-44444444-777777777777--12\11-X--11/12\11-X--|
-44444444-55555555-777777777777---X--X-X---X--X--X-X--|
-22222222-55555555-555555555555--10-\9-X---9/10\-9-X--|
-22222222-33333333-555555555555-----------------------|



CHORUS
----------33333333-------------------|
-33333333-33333333-77777777777777777-|
-44444444-44444444-77777777777777777-|
-44444444-55555555-77777777777777777-|
-22222222-55555555-55555555444444444-|
-22222222-33333333-55555555----------|



CHORUS
----------33333333-----------------------------------------------------|
-33333333-33333333-----------------------------------------------------|
-44444444-44444444-----------------------------16----------------------|
-44444444-55555555--7--9--11--12--14--16-17-19--X-12-------------------|
-22222222-55555555--0--0---0---0---0---0--0--0-14-12-------------------|
-22222222-33333333--5--7---9--10--12--14-15-17----10-------------------|
Добавлено: 17.06.2012
Другие материалы по этой песне:
  • Аккорды и текст

Страница создана 17.06.2012
http://primanota.ru/afi/darling-i-want-to-destroy-you-chords.htm
Привет, Гость.
Предлагаем пройти революционный курс по гитаре.
Подарок от PrimaNota.Ru, забирай!