PrimaNota.ru - самый крупный в мире бесплатный архив песенных текстов, аккордов, табулатур и нот


AFI - Clove Smoke Catharsis - аккорды и текст, таба, бас-таба, драм-таба, видео

Регистрация Запомнить меня
Войти через:  Facebook Google Twitter Vk Yandex Mail.ru

AFI - Clove Smoke Catharsis - аккорды и текст, таба, бас-таба, драм-таба, видео

Печатать
Просмотров: 284
Clove Smoke Catharsis
AFI
Intro:		-----------------------------------------------/12-10-9----------------
------------------------6---------------------------------8------------
--5----8-7-----------7------------5-----8-7----------------7-------5---
----5-------5-6-5--6------5-6-5-----5------------------------6--8------
 
verse 1:	----------------------------------------------7------------------------------------------
--------------------------------------------7--------------------------------------------
--5---5-------3-------5---5-------3------5--------------8---10-8-7---5---5---5-----3-4---
----5-----5-6---5-------5-----5-6---5------------5-6-8-----------------5---5---5-6-------

chorus:		--------------------------------------------------------------------------
------------------------7-5---------------------8-------------------------
--5---3-5-----3-------------8-7---53--------8-----8---------------7------
----5-------5------3-5-----------------3/5--6---------6-5-6-7-8-9---------

------------------------------------------------------------------------
-----------------------------5/7---------------8------------------------
--5-------3-5--3-5------5/7---------7-------8----8----5-6-7-8-10--11----
----1-3/5----------3-5-----------5----5---6---------6-------------------

pre verse:	-------------------------------------------------
----7--------------------7-----------------------
--5---5---0-1-3-0-----5---5---0-1-3-0------------
------------------------------------------3-1-0--

second verse, same as the first(second chorus, same as the first)break:
-------------------------------------------------------------------------------
-----------7-9---7--------------------12------12-14-15-------------------------
-----5-7/9---------9------9-10-12/14------14-----------15----------10----------
--7------------------9-10-----------------------------------13---8-----8-------

--------------------------------------------------------------------------------
-----------7-9---7--------------------12------12-14-15--------------------------
-----5-7/9---------9------9-10-12/14------14-----------15--------------10-------
--7------------------9-10-----------------------------------13--12-10-8----9----

breakdown:	--------------------------------9-------------------9----12-10-9--
------------------8----------10---10------------11---11-----------
--5---8-7-------7--------10----------10-----10--------------------
----5-------5-6------6-8----------------8-9-----------------------

--------------------------------9-------------------9----10-9-----
------------------8----------10---10------------11---11------12---
--5---8-7-------7--------10----------10-----10--------------------
----5-------5-6------6-8----------------8-9-----------------------

repeat chorus end (coda):
-------------------------------------------------
----7-------------7-------------7----------------
--5---5-------0-5---5------0-5----5-----0-5------
-------------------------------------------------
Добавлено: 27.01.2014
Другие материалы по этой песне:

Страница создана 22.02.2012
http://primanota.ru/afi/clove-smoke-catharsis-chords.htm
Привет, Гость.
Предлагаем пройти революционный курс по гитаре.
Подарок от PrimaNota.Ru, забирай!