PrimaNota.ru - самый крупный в мире бесплатный архив песенных текстов, аккордов, табулатур и нот


AFI - A Winter's Tale - текст песни, таба, видео

Регистрация Запомнить меня
Войти через:  Facebook Google Twitter Vk Yandex Mail.ru

AFI - A Winter's Tale - текст песни, таба, видео

Печатать
Просмотров: 153
standard tuning
/ -slide up
* -palm mute

Intro:
|-5----3----8-----6----8-------5----3---8----6--------------------------|
|-6----5----10----6----8-------6----5---10---6--------------------------|
|-7----5----10----7----9-------7----5---10---7-----------------------10-|
|-7----5----10----8----10------7----5---10---8-----------------------0--|
|-5----3----8-----8----10------5----3---8----8---7--8-10---7--8-10------|
|-5----3----8-----6----8-------5----3---8----6---8--8-8----8--8-8-------|

|-----------------------------------------------6-8---5------------------|
|-----10--11------------------------------------6-6---6-------8-------11-|
|-9---10--10---9---10-12---9---10-12-/-14---10------------7---9-------9--|
|-0------------10--10-10---10--10-------------------------0---10------10-|
|---------------------------------10-/-12---8----------------------------|
|------------------------------------------------------------------------|

Verse 1: 
|-5---6---8----8----5---6---8----------------8----5---6---8---8----5---6--|
|-6-6-6---10---8----6-6-6---10---------------8----6---6---10--8----6---6--|
|-7-7-7---10---9----7-7-7---10---------------9----7---7---10--9----7---7--|
|-7---8---10---10---7---8---10---10-10-10-10-10---7---8---10--10---7---8--|
|-5---8---8----10---5---8---8----10-10-10-10-10---5---8---8---10---5---8--|
|-5---6---8----8----5---6---8----8--8--8--8--8----5---6---8---8----5---6--|
  

|-8----8----6------------------------|
|-10---8----6------------------------|
|-10---9----7-----------------7-9----|
|-10---10---8-------------5---7-7----|
|-8----10---8---5---7--8--5---5-5----|
|-8----8----6---5---5--5--5----------|
  *    *    *   *   *  *  *   * *
Chorus 1:
|-8----3---5------8----3---6---------8----3---5---6------|
|-10---5---6------10---5---6---------10---5---6---6------|
|-10---5---7------10---5---7---7-5---10---5---7---7------|
|-10---5---7------10---5---8---7-5---10---5---7---8---7--|
|-8----3---5------8----3---8---5-3---8----3---5---8---7--|
|-8----3---5------8----3---6---------8----3---5---6---5--|

Pre-Verse:
|-5---3---8----6------------------------5---3---8----6---8---|
|-6---5---10---6------------------------6---5---10---6---8---|
|-7---5---10---7------------------------7---5---10---7---9---|
|-7---5---10---8------------------------7---5---10---8---10--|
|-5---3---8----8---7--8-10---7--8-10----5---3---8----8---10--|
|-5---3---8----6---8--8-8----8--8-8-----5---3---8----6---8---|

Verse 2: Same as Verse 1 except the end goes like this:
|-----------------------|
|-----------------------|
|---------------7--9----|
|-----------5---7--7----|
|-5---7--8--5---5--5----|
|-5---5--5--5-----------|

Chorus 2: Same as Chorus 1

Bridge:
clean
|-10-----13------8------10----------------------------------------------|
|-10-----13------6------10--6---------------6---6---6-8-6---------------|
|-7------10------5------7---7-10---10-5---5-7---7---------10---9-10-9-5-|
|---------------------------7-10---10-5---5-7---7---------10----------5-|
|---------------------------5-8----8--3---3-5---5---------8-----------3-|
|-----------------------------------------------------------------------|

|-----------|
|--3-5-6----|
|--------7--|
|--------7--|
|--------5--|
|-----------|

Chorus 3: Same as other choruses except repeated twice 
with this between them:

|------------------|
|------------------|
|------------------|
|-7-7-7-7-7-7-7-7--|
|-7-7-7-7-7-7-7-7--|
|-5-5-5-5-5-5-5-5--|
  * * * * * * * *
Final Chord:
|-5--|
|-6--|
|-7--|
|-7--|
|-5--|
|-5--|
Добавлено: 29.06.2013
Другие материалы по этой песне:
  • Аккорды и текст

Страница создана 20.03.2012
http://primanota.ru/afi/a-winters-tale-chords.htm
Привет, Гость.
Предлагаем пройти революционный курс по гитаре.
Подарок от PrimaNota.Ru, забирай!