PrimaNota.ru - самый крупный в мире бесплатный архив песенных текстов, аккордов, табулатур и нот


Affiance - Call To The Warrior - таба, видео

Регистрация Запомнить меня
Войти через:  Facebook Google Twitter Vk Yandex Mail.ru

Affiance - Call To The Warrior - таба, видео

Печатать
Просмотров: 137
Tabbed by Alex Foust
Will be adding solo and guitar II later!
Or You can do it, just set your speakers to only play one side of the sound! and tab it out.
Drop D or Drop C Either sounds good
Also FIRST TAB! so... tips appreciated.

alexnjfoust@gmail.com

For those that don't know, "x" is a variable in math which can have the value of any number.
LEGEND (generic UG notation)
p-Power on
h-Hammer off
(x)-Guitar II
x-palm mute
*
p*-Pinch Harmonic
b-bend

Sorry for not some of them more out, they wouldnt fit into the alloted space otherwise.
furthermore, when you see open strings played, their spacing shows their rythym, anything else
is just for space reducing purposes in the tab itself.
Strings are as follows

E      D
B      A
G  or  F
D      C
A      G
D      C

Guitar I


-----------------------------------------------------------------------------|
-----------------------------------------------------------------------------|
7-----7-----7-----14-----14--101415-----15-----15----10---10----12----12-----|
x-----x-----x------x------x---x-x-x------x------x-----x----x-----x-----x-----|
5-000-5-000-5-000-12-000-12-0-81213-000-13-000-13-000-8-00-8-00-10-00-10-000-|
--000---000---000----000----0-------000----000----000---00---00----00----000-|
  ***   ***   ***    ***    *       ***    ***    ***   **   **    **    ***
------------------------------------------------------------|
------------------------------------------------------------|
------------------------------------------------------------|  x2
------------------------------------------------------------|
-0000--000--0-00000----0000--000--0-00000-------------------|
-0000--000--0-00000----0000--000--0-00000---88885555777-----|
 ***   ***  * *****    ***   ***  * *****   ***********

-----------------------------------------------------------------------------|
-----------------------------------------------------------------------------|
-12-12-12-12-12-12-12-12-7-7-7-7/4444/5-5-5-5-5-5-5-5-14-14-14-14/12-12/1515-|
--x--x--x--x--x--x--x--x-x-x-x-x-xxxx-x-x-x-x-x-x-x-x--x--x--x--x--x--x--x-x-|
-10-10-10-10-10-10-10-10-9-9-9-9/6666/7-7-7-7-7-7-7-7-12-12-12-12/10-10/1313-|
-----------------------------------------------------------------------------|

-----------------------------------------------------------------------------|
-----------------------------------------------------------------------------|
10-10-10-10-10-10-10-10-7-7-7-7/4-4-4-4/5-5-5-5-5-5-5-5-14-14-14-14/10101010-|
-x--x--x--x--x--x--x--x-x-x-x-x-x-x-x-x-x-x-x-x-x-x-x-x--x--x--x--x--x-x-x-x-|
-8--8--8--8--8--8--8--8-9-9-9-9/9-9-9-9/7-7-7-7-7-7-7-7-12-12-12-12/-8-8-8-8-|
-----------------------------------------------------------------------------|

At half speed of ^above^
----------------------------------------------------------------------------|
----------------------------------------------------------------------------|
-15-15-15-15-15-15-15-15/14-14-14-14/10-10-10-10----------------------------|
--x--x--x--x--x--x--x--x--x--x--x--x--x--x--x--x----------------------------|
-13-13-13-13-13-13-13-13/12-12-12-12/-8--8--8--8-----0-0-0-000-000-0--------|
-----------------------------------------------------0-0-0-000-000-0--------|
                                                     * * * *** *** *

                                                   V|=======2x======|V
----------------------------------------------------------------------------|
----------------------------------------------------------------------------|
-15-15-15-15-15-15-15-15/14-14-14-14/17-17-17-17----------------------------|
--x--x--x--x--x--x--x--x--x--x--x--x----------------------------------------|
-13-13-13-13-13-13-13-13/12-12-12-12/15-15-15-15-----0-0-0-000-000-0--------|
-----------------------------------------------------0-0-0-000-000-0--------|
                                                     * * * *** *** *

-----------------------------------------------------------------------------|
-----------------------------------------------------------------------------|
-10----9---------------------------------------------------------------------|
--x----x---------------------------------------------------------------------|
--8----7-------8-7~--(----8-7~)---------------------------------8-7~----8-7~-|
------------555------(888-----)-0000-0000000-000888777555333-555-----888-----|
            ***       ***       **** ******* *************** ***     ***

----------------------------------------------------------------------------|
----------------------------------------------------------------------------|
----------------------------------------------------------------------------|
------------------7p8h7p8h7-5p7h5p7h5-3p5h3p5h3-2p3h2p3h2-------------------|
--------------------------------------------------------------8-7~-----8-7~-|
-0000-0000000-000-----------------------------------------555------888------|
 **** ******* ***                                         ***      ***

----------------------------------------------------------------------------|
----------------------------------------------------------------------------|
----------------------------------------------------------------------------|
----------------------------------------------------------------------------|
-----------------------------------8-7~-----11-10~--------------------------|
-0000-0000000-000-888777555333-555------888---------------------------------|
 **** ******* *** ************ ***      ***

Listen for rythym, (pick harder)
------------------------------------*--------    ____       ----------------|
--------------------------------------T-----    /    | ##### ---------------|
----------------------------------------I--    |     |       ---------------|
------------------------------------------N    |     |       ---------------|
--------------------------------------------K   \____| ##### ---------------|
-00000000000000000000000000000000...----------*             ----------------|
 ********************************

--------------------------------|
--------------------------------|
-7-----/-5------10-------6------|
-x--x16--x--x16--x--x16--x--x16-|
-5-----/-3-------8-------4------|
--------------------------------|


-------------------------------------------------------------------------|
-------------------------------------------------------------------------|
-5----5----9/10/9--5-5-5-7-7-7-7--5----5----9/10/9--12-12-12/11/10/9-----| x2
-x----x----x--x-x--x-x-x-x-x-x-x--x----x----x--x-x---x--x--x--x--x-x-----|
-3-00-3-00-7/-8/7--3-3-3-5-5-5-5--3-00-3-00-7/-8/7--10-10-10/-9/-8/7-----|
---00---00--------------------------00---00------------------------------|
   **   **                          **   **

V|===============x2======================|V
----------------------------------------------------------------------------|
----------------------------------------------------------------------------|
----------------------------------------------------------------------------|
----------------------------------------------------------------------------|
-0000--000-0-0000--0000-000-------------------8-7~-(----8-7~)---------------|
-0000--000-0-0000--0000-000--88885555777--555------(888-----)---------------|
 ***   *** * ****  ***  ***  ***********  ***


----------------------------------------------------------------------------|
----------------------------------------------------------------------------|
----------------------------------------------------------------------------|
----------------------------------------------------------------------------|
----------------------------------8-7~-----8-7~-----------------------------|
-0000-0000000-000888777555333-555------888----------------------------------|
 **** ******* *************** ***      ***

----------------------------------------------------------------------------|
----------------------------------------------------------------------------|
----------------------------------------------------------------------------|
------------------7p8h7p8h7-5p7h5p7h5-3p5h3p5h3-2p3h2p3h2-------------------|
--------------------------------------------------------------8-7~-----8-7~-|
-0000-0000000-000-----------------------------------------555------888------|
 **** ******* ***                                         ***      ***

----------------------------------------------------------------------------|
----------------------------------------------------------------------------|
----------------------------------------------------------------------------|
----------------------------------------------------------------------------|
-----------------------------------8-7~-----11-10~--------------------------|
-0000-0000000-000888777555333-555------888----------------------------------|
 **** ******* *************** ***      ***

----------------------------------------------------------------------------|
----------------------------------------------------------------------------|
----------------------------------------------------------------------------|
----------------------------------------------------------------------------|
----------------------------------------------------------------------------|
-00000-0-0000-00000--00000-0-0000-00000-------------------------------------|
 ***** * **** *****  ***** * **** *****

------___---___----------___------------------------------------------------|
-----/   --/   \--| ----/   \-----------------------------------------------|
-----\__---|   |--|  ---|   |--Haven't quite figured it out yet-------------|
-----   \--|   |--|   --|   |-----------------------------------------------|
-----___/--\___/--|___ -\___/-----------------------------------------------|
----------------------------------------------------------------------------|


-----------------|
-----------------|
-----------------| x4
-----------------|
-0-0-0-000-000-0-|
-0-0-0-000-000-0-|
 * * * *** *** *

 V|===================================x2==================================|V
-----------------------------------------------------------------------------|
-----------------------------------------------------------------------------|
7-----7-----7-----14-----14--101415-----15-----15----10---10----12----12-----|
x-----x-----x------x------x---x-x-x------x------x-----x----x-----x-----x-----|
5-000-5-000-5-000-12-000-12-0-81213-000-13-000-13-000-8-00-8-00-10-00-10-000-|
--000---000---000----000----0-------000----000----000---00---00----00----000-|
  ***   ***   ***    ***    *       ***    ***    ***   **   **    **    ***


-----------------------------------------------------------------------------|
-----------------------------------------------------------------------------|
10----10----10-----17-----17---151719-----19-----19-----10----10----11----11-|
-x-----x-----x------x------x----x-x-x------x------x------x-----x-----x-------|
-8-000-8-000-8-000-15-000-15-0-131517-000-17-000-17-000-12-00-12-00-13-00-13-|
---000---000---000----000----0----------000----000----000----00----00----00--|
   ***   ***   ***    ***    *          ***    ***    ***    **    **    **

-----------------------------------------------------------------------------|
-----------------------------------------------------------------------------|
-10----10----10-----17-----17---151719-----19-----19-----10----10----11----9-|
--x-----x-----x------x------x----x-x-x------x------x------x-----x-----x----x-|
--8-000-8-000-8-000-15-000-15-0-131517-000-17-000-17-000-12-00-12-00-13-00-7-|
----000---000---000----000----0----------000----000----000----00----00----00-|
    ***   ***   ***    ***    *          ***    ***    ***    **    **    **


----------------------------------------------------------------------------|
----------------------------------------------------------------------------|
----------------------------------------------------------------------------|
------------------------------------------------------------------5p*b------|
-0-0-0-000-000-0--0-0-0-000-000-0--0-0-0-000-000-0--0-0-0-000-000-----------|
-0-0-0-000-000-0--0-0-0-000-000-0--0-0-0-000-000-0--0-0-0-000-000-----------|
 * * * *** *** *  * * * *** *** *  * * * *** *** *  * * * *** ***

V|=====x6=======|V
----------------------------------------------------------------------------|
----------------------------------------------------------------------------|
----------------------------------------------------------------------------|
----------------------------------------------------------------------------|
-0-0-0-000-000-0--0-0-0-000-------------------------------------------------|
-0-0-0-000-000-0--0-0-0-000-------------------------------------------------|
 * * * *** *** *  * * * ***
Добавлено: 24.09.2013
Вам также может быть интересно:
Другие материалы по этой песне:

Страница создана 04.07.2013
http://primanota.ru/affiance/call-to-the-warrior-chords.htm
Привет, Гость.
Предлагаем пройти революционный курс по гитаре.
Подарок от PrimaNota.Ru, забирай!