PrimaNota.ru - самый крупный в мире бесплатный архив песенных текстов, аккордов, табулатур и нот


Aesop Rock - None Shall Pass - текст песни, таба, видео

Регистрация Запомнить меня
Войти через:  Facebook Google Twitter Vk Yandex Mail.ru

Aesop Rock - None Shall Pass - текст песни, таба, видео

Печатать
Просмотров: 164
Авторы текста: Aesop Rock
Alright, first tab, here goes...

Main riff:
|---3-2---0-2-----|
|-0-----0-----0-3-|
|-----------------|
|-----------------|
|-----------------|
|-----------------|

|---0---------7---|
|-0---3---0-3-0-0-|
|-------2---------|
|-----------------|
|-----------------|
|-----------------|

Lead Riff (played occasionally):

|------------|------------|
|-8--7-------|------------|
|-------7----|------------|
|------------|------------|
|------------|------------|
|------------|------------|

|------------|------------|
|-8--7-------|------------|
|-------7----|-7--9--11---|
|------------|------------|
|------------|------------|
|------------|------------|

End Verse Riff (played before chorus, obviously, up an octave than tabbed):

|-12---------|
|-------12---|
|------------|
|------------|
|------------|
|------------|

Alright, so that's it! I probably missed something, but it's pretty accurate I think. Oh 
happy playing!

Could someone post the guitar and bass tabs for "Coffee"? (same album)

And possibly the bass tabs for this song? It'd be pretty easy I think, but I don't play bass.
Добавлено: 17.05.2012
Другие материалы по этой песне:

Страница создана 22.03.2012
http://primanota.ru/aesop-rock/none-shall-pass-chords.htm
Привет, Гость.
Предлагаем пройти революционный курс по гитаре.
Подарок от PrimaNota.Ru, забирай!