PrimaNota.ru - самый крупный в мире бесплатный архив песенных текстов, аккордов, табулатур и нот


Aesop Rock - Bring Back Pluto - бас-таба, видео

Регистрация Запомнить меня
Войти через:  Facebook Google Twitter Vk Yandex Mail.ru

Aesop Rock - Bring Back Pluto - бас-таба, видео

Печатать
Просмотров: 132
Авторы текста: Aesop Rock
--------------------------------------------------------|| x4
----------------11--9h11p9- ---------------11-9----------||
----10---11---------------11----11-10-11-------11-------||
-9------------9---------------9----------9--------------||

--------------------------|| x8    than            -------------------------|| x4
--------------11-9h11p9---||                       --------------11--9------||
----10--11-------------11-||                       ---11-10-11---------(11)-||
-9----------9-------------||                       -9----------9------------||

at the " 9 minus 1 left 8" part
-------------------------||
---9-11-11-9-------------||
-------------------------||
-9-----------9---55-55---||

when they announce the planets   
                               x4              do this at the end of the 4th one
---------------------------9----||---9h11/12\11-9----9-----------||
--9h11-11-11-11-9h11-11-11---9--||----------------11---11--9-11--||
--------------------------------||-------------------------------||
--------------------------------||-------------------------------||


those are the main riffs, just listen to the song and u can fill in where they are supposed to go.



Добавлено: 19.06.2012
Другие материалы по этой песне:
  • Аккорды и текст

Страница создана 19.06.2012
http://primanota.ru/aesop-rock/bring-back-pluto-chords.htm
Привет, Гость.
Предлагаем пройти революционный курс по гитаре.
Подарок от PrimaNota.Ru, забирай!