PrimaNota.ru - самый крупный в мире бесплатный архив песенных текстов, аккордов, табулатур и нот


Aerosmith - Walk On Water - аккорды и текст, таба, видео

Регистрация Запомнить меня
Войти через:  Facebook Google Twitter Vk Yandex Mail.ru

Aerosmith - Walk On Water - аккорды и текст, таба, видео

Печатать
Просмотров: 176
Walk On Water
Aerosmith
Intro:
 
e|---------------------------------------------------|
B|---------------------------------------------------|
G|--b3---4---3---4-----------------------------------|
D|---------------------------------------------------|
A|-------------------2---3---4---5---5---5---5---5---|
E|---------------------------------------------------|

Main Riff:

e|---10---7---6---5---0---0-------------------|
B|--------------------------------------------|
G|--------------------------------------------|
D|--------------------------------------------|
A|--------------------------------------------|
E|----------------------------3---5---5---3---|

Verse:

Play this part 6 times. And this part 4 times
e|---------------------------| e-----------|
B|---------------------------| B-----------|
G|---------------------------| G-----------|
D|---7---9-------------------| D---7---9---|
A|---5---7-------------------| A---5---7---|
E|-----------0---0---0---0---| E-----------|
High class...... Nose bleed...

Pre chorus:

e|-------------------------------------------------------------------|
B|-------------------------------------------------------------------|
G|-------------------------------------------------------------------|
D|---2---2---2---2---2---2-------2---2---2---2---2---2---4---5---6---|
A|---0---0---0---0---0---0---2---0---0---0---0---0---0---2---3---4---|
E|-------^---^-------^---^---0-------^---^-------^---^---------------|
I never seen.....

Chorus: Play each note several times, i don?t have the CD here so i don?t
know how many.

e|---------------------------------------------------------------|
B|---------------------------------------------------------------|
G|---------------------------------------------------------------|
D|---7------------4-------------------2--------------------------|
A|---5------------2----------5--------0----------------------4---|
E|---------------------------3-------------------------------2---|
Hey little......scuse......but......Walk on the water with you

Riff 2: Play it twice.
e|---------------------------------------------------|
B|---------------------------------------------------|
G|---11---14---9---9---4---4---11---14---9---4---4---|
D|---------------------------------------------------|
A|---------------------------------------------------|
E|---------------------------------------------------|

Then comes the main riff again 2 times.

Verse

Pre chorus

Chorus

Riff 2 four times

Here it?s a little solo, i haven?t figure it out yet, but the oher guitar play
something like this:

e|-------------------------------|
B|-------------------------------|
G|-------------------------------|
D|-------------------------------|
A|---2---3---5---6---7---8---9---|
E|-------------------------------|

Then comes the main riff but in a lower key.

e|-------------------------------------------|
B|-------------------------------------------|
G|-------------------------------------------|
D|---0---------------------------------------|
A|-------2---1---0---------------------------|
E|-------------------0---0---3---5---5---3---|

Here is another part play it 3 times:

e|-------------------------------------------|
B|-------------------------------------------|
G|-------------------------------------------|
D|---6---6---6---7---7---7---8---8---8---9---|
A|---4---4---4---5---5---5---6---6---6---7---|
E|-------------------------------------------|
Well the cook?s in the kitchen....

The end of that part goes like this:

e|-------------------------------------------|
B|-------------------------------------------|
G|-------------------------------------------|
D|---9---9---9---9---9---9--11--11--11--11---|
A|---7---7---7---7---7---7---9---9---9---9---|
E|-------------------------------------------|
You know who I am......

In this part you just slide the lower E string like this:

E|---/8---/8---/8---/8---|
Ah Ah Ah Ah

Then you play chorus twice.

Riff 2

Main riff several times.


The whole song:

Intro
Main riff
Verse
Pre Chorus
Chorus
Riff 2
Main riff
Verse
Pre Chorus
Chorus
Riff 2
Solo
Main riff in a lower key (D)
Middle part
Chorus
Riff 2
Main riff
End
Добавлено: 04.04.2014
Другие материалы по этой песне:

Страница создана 23.03.2012
http://primanota.ru/aerosmith/walk-on-water-chords.htm
Привет, Гость.
Предлагаем пройти революционный курс по гитаре.
Подарок от PrimaNota.Ru, забирай!