PrimaNota.ru - самый крупный в мире бесплатный архив песенных текстов, аккордов, табулатур и нот


Aerosmith - Sos Too Bad - текст песни, таба, видео

Регистрация Запомнить меня
Войти через:  Facebook Google Twitter Vk Yandex Mail.ru

Aerosmith - Sos Too Bad - текст песни, таба, видео

Печатать
Просмотров: 164
Авторы музыки: Steven Tyler
Авторы текста: Steven Tyler
Artist: Aerosmith
Title: "S.O.S. (Too Bad)"
Album: "Get Your Wings"

Composed by Steve Tyler, Joe Perry

Tabbed by Chris Clark

Here are the rhythm guitar parts. On the chorus riff, you can
replace the 7 and 9 on the A string with 2 and 4 on the D string
(same pattern as the verse) if you prefer.

Comments and crits to: drclueful@hotmail.com

###

Tab: Guitar
Tuning: Standard

Opening riff

e ---------------------------------------------I
B ---------------------------------------------I
G ---------------------------------------------I
D --6--4------------------6--4-----------------I
A --------6-----2--3--4---------6-----4--2-----I
E -----------4---------------------4--------4--I

Opening riff 2

e ---------------------------------------------------4--I
B ---------------------------------------------------4--I
G ---------------------------------------------------5--I
D --6--4------------------6--4-----------------------6--I
A --------6-----2--3--4---------6-----4--2-----------6--I
E -----------4---------------------4--------4--2--3--4--I

Verse ("Stagecoach lady...")

e -----------------------I
B -----------------------I
G -----------------------I
D --6--4--------------2--I
A --------6--4--2-----2--I
E -----------------4--O--I

Chorus 1 ("'Cause I'm a bad...a lonely...")

e --------------------------------------I
B --------------------------------------I
G --6--4---------------8--6-------------I
D --------6--4---------------8--6-------I
A --------------7--4---------------9--6-I
E --------------------------------------I

Chorus 2 ("And I'm a rat...too bad...")

e -----------------------I
B -----------------------I
G --6--4-----------------I
D --------6--4--------6--I
A --------------7--4--6--I
E --------------------4--I

e --------------------I
B --------------------I
G --------------------I
D --6--4--------------I
A --------6--4--------I
E --------------7--4--I

Solo

E Ab E

###

Recommended chord positions

E

e -----I
B -----I
G -----I
D --2--I
A --2--I
E --O--I

Ab

e -----I
B -----I
G -----I
D --6--I
A --6--I
E --4--I
     
Добавлено: 27.06.2013
Другие материалы по этой песне:

Страница создана 17.03.2012
http://primanota.ru/aerosmith/sos-too-bad-chords.htm
Привет, Гость.
Предлагаем пройти революционный курс по гитаре.
Подарок от PrimaNota.Ru, забирай!