PrimaNota.ru - самый крупный в мире бесплатный архив песенных текстов, аккордов, табулатур и нот


Aeroplanitaliani - Canzone D'amore - аккорды и текст, видео

Регистрация Запомнить меня
Войти через:  Facebook Google Twitter Vk Yandex Mail.ru

Aeroplanitaliani - Canzone D'amore - аккорды и текст, видео

Печатать
Просмотров: 141
Уроки эстрадного вокала в Санкт-Петербурге
Canzone D'amore
Aeroplanitaliani
		   titolo:CANZONE D'AMORE
artista:AEROPLANITALIANI
album:SEI FELICE [2005]

***a cura di Alberto Giordano***
alberto_giordano87@libero.it


intro
------------------------------
------------------------------
-14-12-12----14-12-12----16-14-12
----------14----------14---------
------------------------------
------------------------------

MIm (tiene sempre lo stesso accordo con ritmo funky)


(suona solo il basso,comunque se volete suonare ci va il MIm)

Amore mio, scrivo per te una canzone
Lascio i problemi un momento
Voglio pensare un po' a te.

Ora sei tu l'unica cosa importante
L'unico vero messaggio
Che la mia mente rincorre.

riff
------------------------------
------------------------------
-14-12-12----14-12-12----16-14-12
----------14----------14---------
------------------------------
------------------------------

RE					MIm
Sta girando il sole intorno a noi
RE				   MIm
Senti il mondo che non grida più
RE		MIm
Ora ascolta le mie parole
RE		MIm
Fai posare la mente stanca
RE		MIm
Questo fragile amore è forte
LA
E' tutto quel che hai
tienilo caro.

MIm (tiene sempre lo stesso accordo con ritmo funky)


(suona solo il basso,comunque se volete suonare ci va il MIm)

Amore mio, scrivo per te una canzone
Lascio i problemi un momento
Voglio pensare un po' a te.


MIm (tiene sempre lo stesso accordo con ritmo funky)

Ora sei tu l'unica cosa importante
L'unico vero messaggio
Che la mia mente rincorre.


RE					MIm
Sta girando il sole intorno a noi
RE				   MIm
Senti il mondo che non grida più
RE		MIm
Ora ascolta le mie parole
RE		MIm
Fai posare la mente stanca
RE		MIm
Questo fragile amore è forte
LA
E' tutto quel che hai

E' tutto quel che hai

tienilo caro.


MIm (assolo suonato sul MIm)

riff
------------------------------
------------------------------
-14-12-12----14-12-12----16-14-12
----------14----------14---------
------------------------------
------------------------------

------------------------------
------------------------------
-14-12-12----14-12-12----16-14-12
----------14----------14---------
------------------------------
------------------------------

RE					MIm
Sta girando il sole intorno a noi
RE				   MIm
Senti il mondo che non grida più
RE		MIm
Ora ascolta le mie parole
RE		MIm
Fai posare la mente stanca
RE		MIm
Questo fragile amore è forte
LA
E' tutto quel che hai

tienilo caro.

MIm (sfumato con qualche effetto)	     
Добавлено: 10.06.2013
Другие материалы по этой песне:
  • Аккорды и текст

Страница создана 05.05.2012
http://primanota.ru/aeroplanitaliani/canzone-damore-chords.htm
Привет, Гость.
Предлагаем пройти революционный курс по гитаре.
Подарок от PrimaNota.Ru, забирай!