PrimaNota.ru - самый крупный в мире бесплатный архив песенных текстов, аккордов, табулатур и нот


Aereogramme - Zionist Timing - таба, видео

Регистрация Запомнить меня
Войти через:  Facebook Google Twitter Vk Yandex Mail.ru

Aereogramme - Zionist Timing - таба, видео

Печатать
Просмотров: 102
Авторы музыки: Aereogramme

Author/Artist: Aereogramme
Title: Zionist timing
Album: A story in white
Transcribed by: Andrew Cockburn
Email: Bumface685@hotmail.com

Standard tuning but drop D and Cappoe on the 2nd fret.
I know there are little variationas here and there that are missed out but the basics
are here.
Just listen to the song for the little variations.
Please e-mail me with corections or any other Aereogramme rubbish.

------------------------------------------------------------------------------|
------------------------------------------------------------------------------|
-16-16------------------------------------------------------------------------|
-x--x--0----------------------------------------------------------------------|
-14-14-0----------------------------------------------------------------------|
-15-15-0----------------------------------------------------------------------|
  let the open string ring

------------------------------------------------------------------------------|
--0---------------------------------------------------------------------------|
--16--------------------------------------------------------------------------|
--0---------------------------------------------------------------------------|
--15--------------------------------------------------------------------------|
------------------------------------------------------------------------------|
  And they forgot to come around........

------------------------------------------------------------------------------|
------------------------------------------------------------------------------|
------------------------------------------------------------------------------|
-7------------------------------6---------------------------------------------|
-7------------------------------6---------------------------------------------|
-7------------------------------6---------------------------------------------|
 I am alright, I am alright without you here

------------------------------------------------------------------------------|
------------------------------------------------------------------------------|
-16---------------------------------------------------------------------------|
-0----------------------------------------------------------------------------|
-14---------------------------------------------------------------------------|
------------------------------------------------------------------------------|


------------------------------------------------------------------------------|
------------------------------------------------------------------------------|
-16-16-16-16-16-16-16-16-16-16-16-16-18-18-13-13-13-13-13-13-13-13-13-13-13---|
-0--0--0--0--0--0--0--0--0--0--0--0--0--0--0--0--0--0--0--0--0--0--0--0--0----|
-14-14-14-14-14-14-14-14-14-14-14-14-16-16-11-11-11-11-11-11-11-11-11-11-11---|
-15-15-0--0--0--0--0--0--0--0--0--0--0--0--0--0-------------------------------|


------------------------------------------------------------------------------|
------------------------------------------------------------------------------|
-16---------------------------------------------------------------------------|
-0----------------------------------------------------------------------------|
-14---------------------------------------------------------------------------|
-0----------------------------------------------------------------------------|
 So take a song.................

------------------------------------------------------------------------------|
------------------------------------------------------------------------------|
------------------------------------------------------------------------------|
---7----------------------------6---------------------------------------------|
---7----------------------------6---------------------------------------------|
---7----------------------------6---------------------------------------------|
 I am alright, I am alright without you here

------------------------------------------------------------------------------|
------------------------------------------------------------------------------|
-16-16-16-16-16-16-16-16-16-16-18-18-13-13-13-13-13-13-13-13-13-13-13-13------|
-0--0--0--0--0--0--0--0--0--0--0--0--0--0--0--0--0--0--0--0--0--0--0--0-------|
-14-14-14-14-14-14-14-14-14-14-16-16-11-11-11-11-11-11-11-11-11-11-11-11------|
-0--0--0--0--0--0--0--0--0--0--0--0--0--0--0--0--0--0--0--0--0--0--0--0-------|


------------------------------------------------------------------------------|
------------------------------------------------------------------------------|
-16---------------------------------------------------------------------------|
-0----------------------------------------------------------------------------|
-14---------------------------------------------------------------------------|
-0----------------------------------------------------------------------------|
 And they forgot the common ground.........

------------------------------------------------------------------------------|
------------------------------------------------------------------------------|
------------------------------------------------------------------------------|
---7----------------------------6---------------------------------------------|
---7----------------------------6---------------------------------------------|
---7----------------------------6---------------------------------------------|
 I am alright, I am alright without you here

------------------------------------------------------------------------------|
------------------------------------------------------------------------------|
------------------------------------------------------------------------------|
-0--0--0-0-5-6----x8----------------------------------------------------------|
-0--0--0-0-5-6----------------------------------------------------------------|
-0--0--0-0-5-6----------------------------------------------------------------|


------------------------------------------------------------------------------|
------------------------------------------------------------------------------|
-13-13-13-13-13-13-13-13------------------------------------------------------|
-x--x--x--x--x--x--x--x--x2---------------------------------------------------|
-11-11-11-11-11-11-11-11------------------------------------------------------|
------------------------------------------------------------------------------|


------------------------------------------------------------------------------|
------------------------------------------------------------------------------|
-9-9-9-9-8-6-6-9-9-9-9-9-9-8-6-6----------------------------------------------|
-x-x-x-x-x-x-0-x-x-x-x-x-x-x-x-0----------------------------------------------|
-7-7-7-7-6-4-0-7-7-7-7-7-7-6-4-0----------------------------------------------|
------------------------------------------------------------------------------|


------------------------------------------------------------------------------|
------------------------------------------------------------------------------|
-13-13-13-13-13-13-16-16-13-13-13-13-13-13-18-18-18---------------------------|
-x--x--x--x--x--x--x--x--x--x--x--x--x--x--x--x--x----------------------------|
-11-11-11-11-11-11-14-14-11-11-11-11-11-11-16-16-16---------------------------|
------------------------------------------------------------------------------|


------------------------------------------------------------------------------|
------------------------------------------------------------------------------|
-9-9-9-9-9-9-8-6-6-9-9-9-9-9-9-8-6-6------------------------------------------|
-x-x-x-x-x-x-x-x-0-x-x-x-x-x-x-x-x-0------------------------------------------|
-7-7-7-7-7-7-6-4-0-7-7-7-7-7-7-6-4-0------------------------------------------|
------------------------------------------------------------------------------|
 Insert funny guitar noises here

------------------------------------------------------------------------------|
------------------------------------------------------------------------------|
-16-16-16-16-16-16-16-16-16-16-16-16-16-16-16-16-16---------------------------|
-0--0--0--0--0--0--0--0--0--0--0--0--0--0--0--0--0---x4-----------------------|
-14-14-14-14-14-14-14-14-14-14-14-14-14-14-14-14-14---------------------------|
-------------------15-15-------------------15-15-15---------------------------|
    clean

------------------------------------------------------------------------------|
------------------------------------------------------------------------------|
-16-16-16-16-16-16-16-16-16-16-16-16-16-16-16-16-16---------------------------|
-0--0--0--0--0--0--0--0--0--0--0--0--0--0--0--0--0----x6----------------------|
-14-14-14-14-14-14-14-14-14-14-14-14-14-14-14-14-14---------------------------|
-------------------15-15-------------------15-15-15---------------------------|
    with dist

------------------------------------------------------------------------------|
------------------------------------------------------------------------------|
-16-20-20-20-16-16-16-20-20-20-16-16-16---------------------------------------|
-0--0--0--0--0--0--0--0--0--0--0--0--0------x2--------------------------------|
-14-18-18-18-14-14-14-18-18-18-14-14-14---------------------------------------|
-------------15-15-------------15-15-15---------------------------------------|
Добавлено: 12.06.2012
Другие материалы по этой песне:
  • Аккорды и текст

Страница создана 12.06.2012
http://primanota.ru/aereogramme/zionist-timing-chords.htm
Привет, Гость.
Предлагаем пройти революционный курс по гитаре.
Подарок от PrimaNota.Ru, забирай!