PrimaNota.ru - самый крупный в мире бесплатный архив песенных текстов, аккордов, табулатур и нот


Aereogramme - Shouting For Joey - таба, видео

Регистрация Запомнить меня
Войти через:  Facebook Google Twitter Vk Yandex Mail.ru

Aereogramme - Shouting For Joey - таба, видео

Печатать
Просмотров: 112
Уроки эстрадного вокала в Санкт-Петербурге
Авторы музыки: Aereogramme

		   Author/Artist: Aereogramme
Title: Shouting for Joey
Album: A story in white
Transcribed by: Andrew Cockburn
Email: Bumface685@hotmail.com

Standard tuning, drop D
Im not tabbing out the piano at the end just
the guitar parts.
Plaease e-mail me corections or other aereogramme related stuff.

------------------------------------------------------------------------------
------------------------------------------------------------------------------
------------------------------------------------------------------------------
------------------------------------------------------------------------------
------------------------------------------------------------------------------
-0-0--11-11--0-0-11b----------------------------------------------------------


------------------------------------------------------------------------------
------------------------------------------------------------------------------
------------------------------------------------------------------------------
-0-0--11-11--0-0-11-----------------------------------------------------------
-0-0--11-11--0-0-11-----------------------------------------------------------
-0-0--11-11--0-0-11b----------------------------------------------------------
                 bend whole chord. ocasionally add harmonics on 12th fret

------------------------------------------------------------------------------
------------------------------------------------------------------------------
--------------------------------------14-14-14-14-14-14-14-14-16-16-16-16-16--
-0-----------------0----------11------x--x--x--x--x--x--x--x--x--x--x--x--x---
-0-----------------0----------11------12-12-12-12-12-12-12-12-14-14-14-14-14--
-0-----------------0----------11----------------------------------------------


------------------------------------------------------------------------------
------------------------------------------------------------------------------
-16-16-16---------------------------------------------------------------------
-x--x--x----------------------------------------------------------------------
-14-14-14---------------------------------------------------------------------
------------------------------------------------------------------------------


------------------------------------------------------------------------------
------------------------------------------------------------------------------
------------------------------------------------------------------------------
-0-0---0-0---0-0---0-0---0----------------------------------------------------
-0-0---0-0---0-0---0-0---0----------------------------------------------------
-0-0---0-0---0-0---0-0---0----------------------------------------------------
These are all the riffs in the song, just listen to it to hear where theygo
     
Добавлено: 19.08.2013
Вам также может быть интересно:
Другие материалы по этой песне:
  • Аккорды и текст

Страница создана 19.08.2013
http://primanota.ru/aereogramme/shouting-for-joey-chords.htm
Привет, Гость.
Предлагаем пройти революционный курс по гитаре.
Подарок от PrimaNota.Ru, забирай!