PrimaNota.ru - самый крупный в мире бесплатный архив песенных текстов, аккордов, табулатур и нот


Aereogramme - No Really, Everything's Fine - аккорды и текст, видео

Регистрация Запомнить меня
Войти через:  Facebook Google Twitter Vk Yandex Mail.ru

Aereogramme - No Really, Everything's Fine - аккорды и текст, видео

Печатать
Просмотров: 100
No Really, Everything's Fine
Aereogramme
		   Author/Artist: Aereogramme
Title: No really, everythings fine
Album: ?
Transcribed by: Andrew Cockburn
Email: Bumface685@hotmail.com

1/2 a step down, drop D
I know there are one or two little variations
missed out but just listen to the song to get them.
Please e-mail corections or any aereogramme related stuff

------------------------------------------------------------------------------
------------------------------------------------------------------------------
------------------------------------------------------------------------------
-0-0-0-3-3-3-5-5-5-0-1-0-1-0-1-0----------------------------------------------
-0-0-0-3-3-3-5-5-5-0-1-0-1-0-1-0----------------------------------------------
-0-0-0-3-3-3-5-5-5-0-1-0-1-0-1-0----------------------------------------------


------------------------------------------------------------------------------
------------------------------------------------------------------------------
-9-9-9-9-9-9-9-9-9-9-9-9-9-9-9-9-7-7-7-7-7-7-7-7-7-7-7-7-7-7-7-7--------------
-7-7-7-7-7-7-7-7-7-7-7-7-7-7-7-7-5-5-5-5-5-5-5-5-5-5-5-5-5-5-5-5--------------
-7-7-7-7-7-7-7-7-7-7-7-7-7-7-7-7-5-5-5-5-5-5-5-5-5-5-5-5-5-5-5-5--------------
-7-7-7-7-7-7-7-7-7-7-7-7-7-7-7-7-5-5-5-5-5-5-5-5-5-5-5-5-5-5-5-5--------------


------------------------------------------------------------------------------
------------------------------------------------------------------------------
------------------------------------------------------------------------------
-0-0-0-3-3-3-5-5-5-0-1-0-1-0-1-0----------------------------------------------
-0-0-0-3-3-3-5-5-5-0-1-0-1-0-1-0----------------------------------------------
-0-0-0-3-3-3-5-5-5-0-1-0-1-0-1-0----------------------------------------------


------------------------------------------------------------------------------
------------------------------------------------------------------------------
-9-9-9-9-9-9-9-9-9-9-9-9-9-9-9-9-7-7-7-7-7-7-7-7-7-7-7-7-7-7-7-7--------------
-7-7-7-7-7-7-7-7-7-7-7-7-7-7-7-7-5-5-5-5-5-5-5-5-5-5-5-5-5-5-5-5--------------
-7-7-7-7-7-7-7-7-7-7-7-7-7-7-7-7-5-5-5-5-5-5-5-5-5-5-5-5-5-5-5-5--------------
-7-7-7-7-7-7-7-7-7-7-7-7-7-7-7-7-5-5-5-5-5-5-5-5-5-5-5-5-5-5-5-5--------------


------------------------------------------------------------------------------
------------------------------------------------------------------------------
------------------------------------------------------------------------------
-0-0-0-3-3-3-5-5-5-0-1-0-1-0-1-0----------------------------------------------
-0-0-0-3-3-3-5-5-5-0-1-0-1-0-1-0----------------------------------------------
-0-0-0-3-3-3-5-5-5-0-1-0-1-0-1-0----------------------------------------------


------------------------------------------------------------------------------
------------------------------------------------------------------------------
-9-9-9-9-9-9-9-9-7-7-7-7-7-7-7-7----------------------------------------------
-7-7-7-7-7-7-7-7-5-5-5-5-5-5-5-5-x2-------------------------------------------
-7-7-7-7-7-7-7-7-5-5-5-5-5-5-5-5----------------------------------------------
-7-7-7-7-7-7-7-7-5-5-5-5-5-5-5-5----------------------------------------------
after this strum the chords a few times

------------------------------------------------------------------------------
------------------------------------------------------------------------------
-----7-7-7-7-7-7-7-7-9-9-9-9-11-11-11-11-----7--------------------------------
-x-x-5-5-5-5-5-5-5-5-7-7-7-7-9--9--9--9---x2-5--------------------------------
-x-x-5-5-5-5-5-5-5-5-7-7-7-7-9--9--9--9------5--------------------------------
-x-x-5-5-5-5-5-5-5-5-7-7-7-7-9--9--9--9------5--------------------------------
strum the chords ocasionally before repeating the above rpeat this twice

------------------------------------------------------------------------------
------------------------------------------------------------------------------
-9-9-9------------------------------------------------------------------------
-7-7-7------------------------------------------------------------------------
-7-7-7-x12--------------------------------------------------------------------
-7-7-7------------------------------------------------------------------------


------------------------------------------------------------------------------
------------------------------------------------------------------------------
-9-9-9-9-9-9-9-9-9-9-9-9-9-9-9-9-7-7-7-7-7-7-7-7-7-7-7-7-7-7-7-7--------------
-7-7-7-7-7-7-7-7-7-7-7-7-7-7-7-7-5-5-5-5-5-5-5-5-5-5-5-5-5-5-5-5--------------
-7-7-7-7-7-7-7-7-7-7-7-7-7-7-7-7-5-5-5-5-5-5-5-5-5-5-5-5-5-5-5-5--------------
-7-7-7-7-7-7-7-7-7-7-7-7-7-7-7-7-5-5-5-5-5-5-5-5-5-5-5-5-5-5-5-5--------------


------------------------------------------------------------------------------
------------------------------------------------------------------------------
------------------------------------------------------------------------------
-0-0-0-3-3-3-5-5-5-0-1-0-1-0-1-0----------------------------------------------
-0-0-0-3-3-3-5-5-5-0-1-0-1-0-1-0----------------------------------------------
-0-0-0-3-3-3-5-5-5-0-1-0-1-0-1-0----------------------------------------------



     
Добавлено: 04.12.2013
Другие материалы по этой песне:
  • Аккорды и текст

Страница создана 03.06.2012
http://primanota.ru/aereogramme/no-really-everythings-fine-chords.htm
Привет, Гость.
Предлагаем пройти революционный курс по гитаре.
Подарок от PrimaNota.Ru, забирай!