PrimaNota.ru - самый крупный в мире бесплатный архив песенных текстов, аккордов, табулатур и нот


Aereogramme - Motion - аккорды и текст, видео

Регистрация Запомнить меня
Войти через:  Facebook Google Twitter Vk Yandex Mail.ru

Aereogramme - Motion - аккорды и текст, видео

Печатать
Просмотров: 76
Motion
Aereogramme
		   Author/Artist: Aereogramme
Title: Motion
Album: White paw e.p
Transcribed by: Andrew Cockburn
Email: Bumface685@hotmail.com

Standard tuning, drop D
Please e-mail me corections and
any aereogramme related nonsence

------------------------------------------------------------------------------
-------9---------9---------9---------9----------------------------------------
-----9---9-----9---9-----9---9-----9---9--------------------------------------
---9---------9---------9---------9-------9------------------------------------
-9---------9---------9---------9----------------------------------------------
------------------------------------------------------------------------------
Harmonics

------------------------------------------------------------------------------
------------------------------------------------------------------------------
-10-10-10-10-10-10-10-10-10-10-10-10-10-10-10-10-8-8-8-8-8-8-8-8-8-8-8-8-8/---
-8--8--8--8--8--8--8--8--8--8--8--8--8--8--8--8--6-6-6-6-6-6-6-6-6-6-6-6-6/---
-8--8--8--8--8--8--8--8--8--8--8--8--8--8--8--8--6-6-6-6-6-6-6-6-6-6-6-6-6/---
-8--8--8--8--8--8--8--8--8--8--8--8--8--8--8--8--6-6-6-6-6-6-6-6-6-6-6-6-6/---


------------------------------------------------------------------------------
------------------------------------------------------------------------------
-10/-12/-10-10-10-10-10-10-10-10-10-10-10-10-10/-12/-10/-8-8-8-8-8-8-8-8-8-8--
-8-/-10/-8--8--8--8--8--8--8--8--8--8--8--8--8-/-10/-8-/-6-6-6-6-6-6-6-6-6-6--
-8-/-10/-8--8--8--8--8--8--8--8--8--8--8--8--8-/-10/-8-/-6-6-6-6-6-6-6-6-6-6--
-8-/-10/-8--8--8--8--8--8--8--8--8--8--8--8--8-/-10/-8-/-6-6-6-6-6-6-6-6-6-6--


------------------------------------------------------------------------------
------------------------------------------------------------------------------
-8-8-8/-10/-12/-10-10---------------------------------------------------------
-6-6-6/-8-/-10/-8--8----------------------------------------------------------
-6-6-6/-8-/-10/-8--8----------------------------------------------------------
-6-6-6/-8-/-10/-8--8----------------------------------------------------------


------------------------------------------------------------------------------
------------------------------------------------------------------------------
-8/-10/-12/-10----------------------------------------------------------------
-6/-8-/-10/-8-----------------------------------------------------------------
-6/-8-/-10/-8-----------------------------------------------------------------
-6/-8-/-10/-8-----------------------------------------------------------------


------------------------------------------------------------------------------
------------------------------------------------------------------------------
-8/-10/-12/-10/-12/-10--------------------------------------------------------
-6/-8-/-10/-8-/-10/-8---------------------------------------------------------
-6/-8-/-10/-8-/-10/-8---------------------------------------------------------
-6/-8-/-10/-8-/-10/-8---------------------------------------------------------


------------------------------------------------------------------------------
------------------------------------------------------------------------------
-8/-10/-12----10--------------------------------------------------------------
-6/-8-/-10----8---------------------------------------------------------------
-6/-8-/-10----8---------------------------------------------------------------
-6/-8-/-10----8---------------------------------------------------------------


------------------------------------------------------------------------------
------------------------------------------------------------------------------
-8/-10/-12/-10-10-10-10-10-10-10-10-10-10-10-10-10-10-10-10-10-8-8-8-8-8-8-8--
-6/-8-/-10/-8--8--8--8--8--8--8--8--8--8--8--8--8--8--8--8--8--6-6-6-6-6-6-6--
-6/-8-/-10/-8--8--8--8--8--8--8--8--8--8--8--8--8--8--8--8--8--6-6-6-6-6-6-6--
-6/-8-/-10/-8--8--8--8--8--8--8--8--8--8--8--8--8--8--8--8--8--6-6-6-6-6-6-6--


------------------------------------------------------------------------------
------------------------------------------------------------------------------
-8-8-8-8-8-8/-10/12/-10-------------------------------------------------------
-6-6-6-6-6-6/-8-/10/-8--------------------------------------------------------
-6-6-6-6-6-6/-8-/10/-8--------------------------------------------------------
-6-6-6-6-6-6/-8-/10/-8--------------------------------------------------------


------------------------------------------------------------------------------
------------------------------------------------------------------------------
-8/-10/-12/-8-----------------------------------------------------------------
-6/-8-/-10/-6-----------------------------------------------------------------
-6/-8-/-10/-6-----------------------------------------------------------------
-6/-8-/-10/-6-----------------------------------------------------------------
play 3 times with bits of pickin the chord in between

------------------------------------------------------------------------------
------------------------------------------------------------------------------
-8/-10/-12/-10/-12/-8---------------------------------------------------------
-6/-8-/-10/-8-/-10/-6---------------------------------------------------------
-6/-8-/-10/-8-/-10/-6---------------------------------------------------------
-6/-8-/-10/-8-/-10/-6---------------------------------------------------------


------------------------------------------------------------------------------
------------------------------------------------------------------------------
-8/-10/-12/-8-----------------------------------------------------------------
-6/-8-/-10/-6-----------------------------------------------------------------
-6/-8-/-10/-6-----------------------------------------------------------------
-6/-8-/-10/-6-----------------------------------------------------------------


------------------------------------------------------------------------------
------------------------------------------------------------------------------
-8/-10/-12/-8-10-10-10-10-10-10-10-10-10-10-10-10-10-10-10-10-8-8-8-8-8-8-8---
-6/-8-/-10/-6-8--8--8--8--8--8--8--8--8--8--8--8--8--8--8--8--6-6-6-6-6-6-6---
-6/-8-/-10/-6-8--8--8--8--8--8--8--8--8--8--8--8--8--8--8--8--6-6-6-6-6-6-6---
-6/-8-/-10/-6-8--8--8--8--8--8--8--8--8--8--8--8--8--8--8--8--6-6-6-6-6-6-6---


------------------------------------------------------------------------------
------------------------------------------------------------------------------
-8-8-8-8-8-8/-10/-12/-10------------------------------------------------------
-6-6-6-6-6-6/-8-/-10/-8-------------------------------------------------------
-6-6-6-6-6-6/-8-/-10/-8-------------------------------------------------------
-6-6-6-6-6-6/-8-/-10/-8-------------------------------------------------------


------------------------------------------------------------------------------
------------------------------------------------------------------------------
------------------------------------------------------------------------------
-8-8-8-8-8-8-8-8-8-8-8-8-8-8-8-8-6-6-6-6-6-6-6-6-6-6-6-6-6/-8/-10/-8----------
-8-8-8-8-8-8-8-8-8-8-8-8-8-8-8-8-6-6-6-6-6-6-6-6-6-6-6-6-6/-8/-10/-8----------
-8-8-8-8-8-8-8-8-8-8-8-8-8-8-8-8-6-6-6-6-6-6-6-6-6-6-6-6-6/-8/-10/-8----------
with dist




     
Добавлено: 18.08.2013
Другие материалы по этой песне:
  • Аккорды и текст

Страница создана 07.08.2013
http://primanota.ru/aereogramme/motion-chords.htm
Привет, Гость.
Предлагаем пройти революционный курс по гитаре.
Подарок от PrimaNota.Ru, забирай!