PrimaNota.ru - самый крупный в мире бесплатный архив песенных текстов, аккордов, табулатур и нот


Aer - Wonderin Why - таба, видео

Регистрация Запомнить меня
Войти через:  Facebook Google Twitter Vk Yandex Mail.ru

Aer - Wonderin Why - таба, видео

Печатать
Просмотров: 72
Уроки эстрадного вокала в Санкт-Петербурге
-------------------------------------------------------------------------------
                             Wonderin' Why - Aer
-------------------------------------------------------------------------------

Tuning: Standard
            
*Note: Listen to song to figure out when the different parts come in

Rhythm: Repeats throughout song

e|----2------0------2------0------2-------0-------2------0-------------------|
B|----4------0------4------0------4-------0-------2------0-------------------|
G|----3------1------3------1------3-------1-------3------1-------------------|
D|----4------2------4------2------4-------2-------4------2-------------------|
A|----2------2------2------2------2-------2-------4------2-------------------|
E|----x------0------x------0------x-------0-------2------0-------------------|


 Verse/chorus- Second Guitar:
 repeats a few times
e|---------------------------------------------------------------------------------4--|
B|---------7---------------------7----------------7----------------7-----7-----5\4---4|
G|-----6/8----44-44-----4-----6/8---44-44---4----6/8---44-44---4-----6/8--------------|
D|-------------------6-------------------6----------------6---------------------------|
A|------------------------------------------------------------------------------------|
E|------------------------------------------------------------------------------------|


After "And I keep my mind closed" in second chorus
e|------------------------------------------------------4p2----4-4p2---------|
B|-----------------------------------------------4----------4--------4-------|
G|------888---6---4----888-6---4----888-6---4--------------------------------|
D|--------------6------------6------------6----------------------------------|
A|---------------------------------------------------------------------------|
E|---------------------------------------------------------------------------|

Bridge rhythm:"We could Bend the Rules"

e|----7--7--7----9--9--9--9-------------------------------------------------------|
B|----9--9--9----9--9--9--9-------------------------------------------------------|
G|----8--8--8----9--9--9--9-------------------------------------------------------|
D|----9--9--9----x--x--x--x-------------------------------------------------------|
A|----7--7--7----x--x--x--x-------------------------------------------------------|
E|----x--x--x----x--x--x--x-------------------------------------------------------|

Bridge rhythm: after "Listen to the words He's singin" 
e|-----7---7---7---7------2---2---2---2----------------------------------------------|
B|-----9---9---9---9------4---4---4---4----------------------------------------------|
G|-----8---8---8---8------3---3---3---3----------------------------------------------|
D|-----9---9---9---9------4---4---4---4----------------------------------------------|
A|-----7---7---7---7------2---2---2---2----------------------------------------------|
E|-----x---x---x---x------x---x---x---x----------------------------------------------|

Bridge Second guitar
e|--------7-4-----7-4-----------------------------------------|
B|----4-7-----4-7----------7-4-----7-4------------------------|
G|---------------------4-6-----4-6----------------------------|
D|------------------------------------------------------------|
A|------------------------------------------------------------|
E|------------------------------------------------------------|

After "It's right down that way" repeats until end of the song
e|-----------------------------------------4----------------------------------|
B|----------5-4---4----------4--------7----4----------------------------------|
G|----------------4-----------4-------8----4----------------------------------|
D|----6666-----------4-4-4-----4-----------6----------------------------------|
A|-------------------2-2-2-------6--------------------------------------------|
E|----------------------------------------------------------------------------|

Second part after "It's Right down that way" at the very end of song
e|---------------------------------------------------------------------------|
B|-----5-4-44b^5-44b^5-44b^5----44444----------------------------------------|
G|---------------------------4-------4---------------------------------------|
D|------------------------------------6--------------------------------------|
A|---------------------------------------------------------------------------|
E|---------------------------------------------------------------------------|


************************************

| /   slide up
| \   slide down
| p   pull-off
| x   Mute note
| b   Bend


************************************
Добавлено: 27.12.2015
Другие материалы по этой песне:
  • Аккорды и текст

Страница создана 27.12.2015
http://primanota.ru/aer/wonderin-why-chords.htm
Привет, Гость.
Предлагаем пройти революционный курс по гитаре.
Подарок от PrimaNota.Ru, забирай!