PrimaNota.ru - самый крупный в мире бесплатный архив песенных текстов, аккордов, табулатур и нот


Aer - Like The Way - таба, бас-таба, видео

Регистрация Запомнить меня
Войти через:  Facebook Google Twitter Vk Yandex Mail.ru

Aer - Like The Way - таба, бас-таба, видео

Печатать
Просмотров: 105
Like The Way
Aer
The Bright Side
2012

Song pretty much has 4 different parts that are played in the song.

part1
|-----------------------------------------------------------------------|
|-----------------------------------------------------------------------|
|-----------------------------------------------------------------------|
|----------------4-4/6-6-6-6-6-6-6--------------9-4-4/6-6-6-6-6-6-6-4---|
|--4-4-4-4-4-4-7--------------------7-7-7-7-7-7-----------------------7-|
|-----------------------------------------------------------------------|

|-------------------------------------------------------------------|
|-------------------------------------------------------------------|
|-------------------------------------------------------------------|
|----------------4-4/6-6-6-6-6-6-6-6-6-6-6-6- 4---------------------|
|--4-4-4-4-4-4-7-------------------------------7-7-7-7-4-4-4--------|
|-------------------------------------------------------------------|


part2 (also palm muted)
|-----------------------------------------------------------------------|
|--9-9-9-9-9-9--12---9---12---9-----9-9-9-9-9-9--7b---7b----------------|
|-----------------------------------------------------------------------|
|-----------------------------------------------------------------------|
|-----------------------------------------------------------------------|
|-----------------------------------------------------------------------|

part3
|---------------------------------------|
|---------------------------------------|
|---------------------------------------|
|--6-6----6-6----4-4----2-2----4-4h6----|
|--7-7----7-7----5-5----4-4-------------|
|---------------------------------------|


"she holds it down"
|-----------------------------|
|-----------------------------|
|-----------------------------|
|--6-6------------------------|
|--7-7----6-6----9-9----4-4---|
|---------7-7---1010----5-5---|
Добавлено: 05.09.2013
Другие материалы по этой песне:
  • Аккорды и текст

Страница создана 05.09.2013
http://primanota.ru/aer/like-the-way-chords.htm
Привет, Гость.
Предлагаем пройти революционный курс по гитаре.
Подарок от PrimaNota.Ru, забирай!