PrimaNota.ru - самый крупный в мире бесплатный архив песенных текстов, аккордов, табулатур и нот


Ady Suleiman - State Of Mind - таба, видео

Регистрация Запомнить меня
Войти через:  Facebook Google Twitter Vk Yandex Mail.ru

Ady Suleiman - State Of Mind - таба, видео

Печатать
Просмотров: 151
Уроки эстрадного вокала в Санкт-Петербурге
-------------------------------------------------------------------------------
                             State Of Mind - Ady Suleiman
-------------------------------------------------------------------------------
Tabbed by: mxmxie

Well these chords jost go throughout the whole song, so you can just keep
playing this. I think its pretty accurate, because I took the chords from 
this live session https://youtu.be/Ko2XzYa8xK4 .
Hope you enjoy this song and artist!
Feedback is welcome ;)


Tuning: Standart

Chords: 
F#m/D: [x5676x]
C#7:   [x4545x]
A/F#:  [2x222x]
Bm7:   [x2423x]
     



 
        F#m/D        C#7       A/F#        Bm7
 
e|---------------------------------------------------------------------------|
B|-------7-7---------5-5--------2-2--------3-3-------------------------------|
G|-------6-6---------4-4--------2-2--------2-2-------------------------------|
D|-------7-7---------5-5--------2-2--------4-4-------------------------------|
A|-----5-----------4---------------------2-----------------------------------|
E|----------------------------2----------------------------------------------|





************************************

Добавлено: 01.11.2015
Другие материалы по этой песне:
  • Аккорды и текст

Страница создана 01.11.2015
http://primanota.ru/ady-suleiman/state-of-mind-chords.htm
Привет, Гость.
Предлагаем пройти революционный курс по гитаре.
Подарок от PrimaNota.Ru, забирай!