PrimaNota.ru - самый крупный в мире бесплатный архив песенных текстов, аккордов, табулатур и нот


Adventures - Walking - таба, видео

Регистрация Запомнить меня
Войти через:  Facebook Google Twitter Vk Yandex Mail.ru

Adventures - Walking - таба, видео

Печатать
Просмотров: 69
Adventure 
Walking
Adventures 7" EP
Tabbed By: James Wojak
Email: Jameswojak@gmail.com



Eb standard
Great Song, they have a pretty cool writing style, there's a couple major chords 
in here, and a lot of structure.
4 Clicks

Intro
Eb|--------------------------------------|
Bb|--------------------------------------|
Gb|--------------------------------------|
Db|--------555-44-00---------------------|
Ab|--------777-55-22---------------------|
Eb|--------------------------------------|

eb|-------------------1-------------------|
Bb|-------------------1-------------------|
Gb|-------------------0-------------------|
Db|---------555-44-0--0-------------------|
Ab|---------777-55-0--2-------------------|
Eb|-------------------3-------------------|


Verse
Eb|--------------------------------------|
Bb|--------------------------------------|
Gb|--------------------------------------|
Db|--------555-44-00---------------------|
Ab|--------777-55-22---------------------|
Eb|--------------------------------------|
        "This morning I woke up..."

eb|-------------------1-------------------|
Bb|-------------------1-------------------|
Gb|-------------------0-------------------|
Db|---------555-44-0--0-------------------|
Ab|---------777-55-0--2-------------------|
Eb|-------------------3-------------------|

x4

chorus
eb|--------------------------------------------|
Bb|--------------------------------------------|
Gb|--------------------------------------------|
Db|-7-777777777777-7/10101010101010101010101010|
Ab|-7-777777777777-7/10101010101010101010101010|
Eb|-5-555555555555-5/8-8-8-8-8-8-7-7-7-7-7-7-7-|
     xxxxxxxxxxxx   x x x x x x 
        "sometimes I don't even feel the cold..."

eb|---------------------------------------------------------------|
Bb|---------------------------------------------------------------|
Gb|---------------------------------------------------------------|
Db|--5-5555-55-9999--5555-----------------------------------------|
Ab|--5-5555-55-9999--5555-----------------------------------------|
Eb|--3-3333-33-7777--3333-----------------------------------------|
        "Looking for somewhere to throw my stones"

eb|--------------------------------------------|
Bb|--------------------------------------------|
Gb|--------------------------------------------|
Db|-7-777777777777-7/10101010101010101010101010|
Ab|-7-777777777777-7/10101010101010101010101010|
Eb|-5-555555555555-5/8-8-8-8-8-8-7-7-7-7-7-7-7-|
     xxxxxxxxxxxx   x x x x x x 

verse
Eb|--------------------------------------|
Bb|--------------------------------------|
Gb|--------------------------------------|
Db|--------555-44-00---------------------|
Ab|--------777-55-22---------------------|
Eb|--------------------------------------|
        "Tonight I will lay down..."

eb|-------------------1-------------------|
Bb|-------------------1-------------------|
Gb|-------------------0-------------------|
Db|---------555-44-0--0-------------------|
Ab|---------777-55-0--2-------------------|
Eb|-------------------3-------------------|

x4

chorus
eb|--------------------------------------------|
Bb|--------------------------------------------|
Gb|--------------------------------------------|
Db|-7-777777777777-7/10101010101010101010101010|
Ab|-7-777777777777-7/10101010101010101010101010|
Eb|-5-555555555555-5/8-8-8-8-8-8-7-7-7-7-7-7-7-|
     xxxxxxxxxxxx   x x x x x x 
        "sometimes I don't even feel the cold..."

Bridge
        lead
eb|----------------------------------------------------------|
Bb|-----------------0-------0000---0----0-0h1p0--------------|
Gb|-------0---------0-------0000---0-----------0-------------|
Db|-----5--5-5----4--4-4----2222---2-------------------------|
Ab|----7-7--7----5-5--5-----3333---3-------------------------|
Eb|----------------------------------------------------------|
        "Sometimes I pray that you might know

        Rhythm
eb|----00000000---00000000---------0----------------------------|
Bb|----00000000---00000000---0000--0----------------------------|
Gb|----00000000---00000000---0000--0----------------------------|
Db|----55555555---44444444---2222--2----------------------------|
Ab|----77777777---55555555---3333--3----------------------------|
Eb|-------------------------------------------------------------|
x4

Outro
eb|--------------------------------0----------------------------|
Bb|--------------------------0000--0----------------------------|
Gb|----00000000---00000000---0000--0----------------------------|
Db|----55555555---44444444---2222--2----------------------------|
Ab|----77777777---55555555---3333--3----------------------------|
Eb|-------------------------------------------------------------|
      xxxxxxxx   xxxxxxxx   xxxx


| /  slide up
| \  slide down
| h  hammer-on
| p  pull-off
| ~  vibrato
| +  harmonic
| x  Mute note
Добавлено: 01.08.2013
Вам также может быть интересно:
Другие материалы по этой песне:
  • Аккорды и текст

Страница создана 01.08.2013
http://primanota.ru/adventures/walking-chords.htm
Привет, Гость.
Предлагаем пройти революционный курс по гитаре.
Подарок от PrimaNota.Ru, забирай!