PrimaNota.ru - самый крупный в мире бесплатный архив песенных текстов, аккордов, табулатур и нот


Adventures - Flowing Through - таба, видео

Регистрация Запомнить меня
Войти через:  Facebook Google Twitter Vk Yandex Mail.ru

Adventures - Flowing Through - таба, видео

Печатать
Просмотров: 59
Уроки эстрадного вокала в Санкт-Петербурге
-------------------------------------------------------------------------------
                             FLOWING THROUGH - Adventures
-------------------------------------------------------------------------------

Tuning: Half-step Down

Verse: "Flowing through the splitting ground"
eb|-------------------------------------------------------------------|
Bb|-------------------------------------------------------------------|
Gb|---------------------------------2-2-2-2-2-2-2-2-2-2-2-2-2-2-2-2---|
Db|-2-2-2-2-2-2-2-2-2-2-2-2-2-2-2-2-2-2-2-2-2-2-2-2-2-2-2-2-2-2-2-2---|
Ab|-2-2-2-2-2-2-2-2-2-2-2-2-2-2-2-2-0-0-0-0-0-0-0-0-0-0-0-0-0-0-0-0---|
Eb|-0-0-0-0-0-0-0-0-0-0-0-0-0-0-0-0-----------------------------------|
  |                                                                   | x2
eb|-------------------------------------------------------------------|
Bb|---------5-7-9-----------5-7-9-----------5-7-9-------101010--9-----|
Gb|---------------------4---------------4-----------------------------|
Db|-------------------------------------------------------------------|
Ab|-------------------------------------------------------------------|
Eb|-------------------------------------------------------------------|

Verse: pt 2: "Ive been pretending to have a grasp"
eb|--------------------------------------------------------------------|
Bb|--------------------------------------------------------------------|
Gb|-6-6-6-6-6-6-6-6-4-4-4-4-4-4-4-4-2-2-2-2-2-2-2-2-2-2-2-2-2-2-2-2----| x2
Db|-6-6-6-6-6-6-6-6-4-4-4-4-4-4-4-4-2-2-2-2-2-2-2-2-2-2-2-2-2-2-2-2----|
Ab|-4-4-4-4-4-4-4-4-2-2-2-2-2-2-2-2-0-0-0-0-0-0-0-0-0-0-0-0-0-0-0-0----|
Eb|--------------------------------------------------------------------|

Verse: "Flowing through the splitting ground"
eb|-------------------------------------------------------------------|
Bb|-------------------------------------------------------------------|
Gb|---------------------------------2-2-2-2-2-2-2-2-2-2-2-2-2-2-2-2---|
Db|-2-2-2-2-2-2-2-2-2-2-2-2-2-2-2-2-2-2-2-2-2-2-2-2-2-2-2-2-2-2-2-2---|
Ab|-2-2-2-2-2-2-2-2-2-2-2-2-2-2-2-2-0-0-0-0-0-0-0-0-0-0-0-0-0-0-0-0---|
Eb|-0-0-0-0-0-0-0-0-0-0-0-0-0-0-0-0-----------------------------------|
  |                                                                   | x2
eb|-------------------------------------------------------------------|
Bb|---------5-7-9-----------5-7-9-----------5-7-9-------101010--9-----|
Gb|---------------------4---------------4-----------------------------|
Db|-------------------------------------------------------------------|
Ab|-------------------------------------------------------------------|
Eb|-------------------------------------------------------------------|

Verse: pt 2: "Ive been pretending to have a grasp"
eb|--------------------------------------------------------------------|
Bb|--------------------------------------------------------------------|
Gb|--------------------------------------------------------------------| x2
Db|-6-6-6-6-6-6-6-6-4-4-4-4-4-4-4-4-2-2-2-2-2-2-2-2-2-2-2-2-2-2-2-2----|
Ab|-4-4-4-4-4-4-4-4-2-2-2-2-2-2-2-2-0-0-0-0-0-0-0-0-0-0-0-0-0-0-0-0----|
Eb|--------------------------------------------------------------------|
    pm. . . . . . . . . . . . . . . . . . . . . . . . . . . . . . .


Interlude:
eb|-----------------------------------------------------------------|
Bb|-----------------------------------------------------------------|
Gb|-------------2--------------2--------------2---------------------|
Db|-2-----------2--2-----------2--2-----------2--2------------------|
Ab|-2-----------0--2-----------0--2-----------0--2------------------|
Eb|-0--------------0--------------0--------------0------------------|


Bridge:
eb|---------------------------------------------------------------------------|
Bb|---------------------------------------------------------------------------|
Gb|-------------------------------------------------------------------2-2-2---|
Db|-----------------6-6-6-6-6-6-6-6-2-2-2-2-6-6-4-4-------------------2-2-2---|
Ab|-2-2-2-2-2-2-2-2-4-4-4-4-4-4-4-4-0-0-0-0-4-4-2-2-2-2-2-2-2-2-2-2-2-0-0-0---|
Eb|-0-0-0-0-0-0-0-0---------------------------------0-0-0-0-0-0-0-0-0---------|
    pm. . . . . . . . . . . . . . . . . . . . . . . . . . . . . . . .

eb|-------------------------------------------------------------------|
Bb|-------------------------------------------------------------------|
Gb|-----------------------------------------------------------2-2-2---|
Db|-----------------6-6-6-6-6-6-6-6-2-2-2-2-6-6-4-4-----------2-2-2---|
Ab|-2-2-2-2-2-2-2-2-4-4-4-4-4-4-4-4-0-0-0-0-4-4-2-2-2-2-2-2-2-0-0-0---|
Eb|-0-0-0-0-0-0-0-0---------------------------------0-0-0-0-0---------|
    pm. . . . . . . . . . . . . . . . . . . . . . . . . . . . 


Verse: "Flowing through the splitting ground"
eb|-------------------------------------------------------------------|
Bb|-------------------------------------------------------------------|
Gb|---------------------------------2-2-2-2-2-2-2-2-2-2-2-2-2-2-2-2---|
Db|-2-2-2-2-2-2-2-2-2-2-2-2-2-2-2-2-2-2-2-2-2-2-2-2-2-2-2-2-2-2-2-2---|
Ab|-2-2-2-2-2-2-2-2-2-2-2-2-2-2-2-2-0-0-0-0-0-0-0-0-0-0-0-0-0-0-0-0---|
Eb|-0-0-0-0-0-0-0-0-0-0-0-0-0-0-0-0-----------------------------------|
  |                                                                   | x2
eb|-------------------------------------------------------------------|
Bb|---------5-7-9-----------5-7-9-----------5-7-9-------101010--9-----|
Gb|---------------------4---------------4-----------------------------|
Db|-------------------------------------------------------------------|
Ab|-------------------------------------------------------------------|
Eb|-------------------------------------------------------------------|

Verse: pt 2: "Ive been pretending to have a grasp"
eb|--------------------------------------------------------------------|
Bb|--------------------------------------------------------------------|
Gb|-6-6-6-6-6-6-6-6-4-4-4-4-4-4-4-4-2-2-2-2-2-2-2-2-2-2-2-2-2-2-2-2----| 
Db|-6-6-6-6-6-6-6-6-4-4-4-4-4-4-4-4-2-2-2-2-2-2-2-2-2-2-2-2-2-2-2-2----|
Ab|-4-4-4-4-4-4-4-4-2-2-2-2-2-2-2-2-0-0-0-0-0-0-0-0-0-0-0-0-0-0-0-0----|
Eb|--------------------------------------------------------------------|

eb|--------------------------------------------------------------------|----|
Bb|--------------------------------------------------------------------|----|
Gb|--------------------------------------------------------------------|----|
Db|-6-6-6-6-6-6-6-6-4-4-4-4-4-4-4-4-2-2-2-2-2-2-2-2-2-2-2-2-2-2-2-2----|-2--|
Ab|-4-4-4-4-4-4-4-4-2-2-2-2-2-2-2-2-0-0-0-0-0-0-0-0-0-0-0-0-0-0-0-0----|-2--|
Eb|--------------------------------------------------------------------|-0--|
    pm. . . . . . . . . . . . . . .


Outro:
eb|--4-5-4--------4-5-4-------4-5-4----------------|
Bb|------------5-----------5-----------------------|
Gb|------------------------------------------------|
Db|-------------------------------------2----------|
Ab|-------------------------------------0----------|
Eb|------------------------------------------------|
  |                                     pm         |
eb|------------------------------------------------|
Bb|--5-7-5--------5-7-5-------5-7-5----------------|
Gb|------------4-----------4-----------------------|
Db|-------------------------------------2----------|
Ab|-------------------------------------0----------|
Eb|------------------------------------------------|
                                        pm



************************************

| /   slide up
| \   slide down
| h   hammer-on
| p   pull-off
| ~   vibrato
| +   harmonic
| x   Mute note
| b   Bend
| pb  Pre-bend
| br  Bend release
| pbr Pre-bend release
| brb Bend release bend

************************************
Добавлено: 11.08.2014
Вам также может быть интересно:
Другие материалы по этой песне:
  • Аккорды и текст

Страница создана 11.08.2014
http://primanota.ru/adventures/flowing-through-chords.htm
Привет, Гость.
Предлагаем пройти революционный курс по гитаре.
Подарок от PrimaNota.Ru, забирай!