PrimaNota.ru - самый крупный в мире бесплатный архив песенных текстов, аккордов, табулатур и нот


Adventure Time Marceline - Daddy Why Did You Eat My Fries - бас-таба, видео

Регистрация Запомнить меня
Войти через:  Facebook Google Twitter Vk Yandex Mail.ru

Adventure Time Marceline - Daddy Why Did You Eat My Fries - бас-таба, видео

Печатать
Просмотров: 1168
http://www.youtube.com/watch?v=d17opCgsUrE&
This not %100 correct ;A; this is my first tabbing for a song

E|--3-3-----------|-3-3-3-3--------|-----3-3-3------|--2-2-----------|
A|------3-3--5-5--|----------3-3---|-5-5------------|------7-7--3-3--|
D|----------------|----------------|----------------|----------------|
G|----------------|----------------|----------------|----------------|


E|-2-2------------|----------------|----------------|----------------|
A|-----7-7--3-----|----------------|----------------|----------------|
D|----------------|----------------|----------------|----------------|
G|----------------|----------------|----------------|----------------|
Добавлено: 28.10.2013
Другие материалы по этой песне:
  • Аккорды и текст

Страница создана 28.10.2013
http://primanota.ru/adventure-time-marceline/daddy-why-did-you-eat-my-fries-chords.htm
Привет, Гость.
Предлагаем пройти революционный курс по гитаре.
Подарок от PrimaNota.Ru, забирай!