PrimaNota.ru - самый крупный в мире бесплатный архив песенных текстов, аккордов, табулатур и нот


Adriana Calcanhoto - Devolva-me - таба, видео

Регистрация Запомнить меня
Войти через:  Facebook Google Twitter Vk Yandex Mail.ru

Adriana Calcanhoto - Devolva-me - таба, видео

Печатать
Просмотров: 360
Intro:

e|--------------------------------------------|
B|------------------1-------3----------1------|
G|-----2*--------2-------2----------2---------|
D|-- 0-------0--------0----------0-------0----|
A|-1-------1-------1----------1---------------|
E|--------------------------------------------|

e|--------------------------------------------|
B|------------------1-------3----------1------|
G|-----2*--------2-------2----------2----2----|
D|-- 0-------0--------0----------0------------|
A|-1-------1-------1----------1---------------|
E|--------------------------------------------|

 (*): let ring

Verse:
 D#/C       F7    F/C    D#/C  F7    F/C  D#/C
 Rasgue as minhas cartas e não me procure mais
 F7         Bb7M             D7(9)/Bb
Assim será melhor, meu bem
D#/C   F7    F/C       D#/C     F7    F/C     D#/C
...O retrato que eu te dei, se ainda tens não sei
    F7       Bb7M
Mas se tiver devolva-me

Chorus:
D7         Bb/G                      Cm7
Deixe-me sozinho porque assim eu viverei em paz
          F7    F/C   F7 F/C           Bb7M
Quero que sejas bem feliz     junto do seu novo rapaz

Verse:
 D#/C       F7    F/C    D#/C  F7    F/C  D#/C
 Rasgue as minhas cartas e não me procure mais
 F7             Bb7M             D7(9)/Bb
Assim vai ser melhor, meu bem
D#/C   F7    F/C       D#/C     F7    F/C     D#/C
...O retrato que eu te dei, se ainda tens não sei
    F7         Bb7M          D7(9)/Bb
Mas se tiver devolva-me

D#/C   F7    F/C       D#/C     F7    F/C     D#/C
...O retrato que eu te dei, se ainda tens não sei
    F7          (let it ring)
Mas se tiver...

Final:
  D7(9)/Bb     D9/Bb    D7(9)/Bb        Bb/G
Devolva-me,                           devolva-me
  Eb7M             D7(9)/Bb       D9/Bb    D7(9)/Bb  (let it ring)
Devooooooolvaaaaaa-meeeeeeeee...

Very nice song ;) Brazilian music it's awsome.
Enjoy it!
Conan
Добавлено: 15.05.2012
Другие материалы по этой песне:
  • Аккорды и текст

Страница создана 15.05.2012
http://primanota.ru/adriana-calcanhoto/devolva-me-chords.htm
Привет, Гость.
Предлагаем пройти революционный курс по гитаре.
Подарок от PrimaNota.Ru, забирай!