PrimaNota.ru - самый крупный в мире бесплатный архив песенных текстов, аккордов, табулатур и нот


Adrian Legg - The netsman and the laird - таба, видео

Регистрация Запомнить меня
Войти через:  Facebook Google Twitter Vk Yandex Mail.ru

Adrian Legg - The netsman and the laird - таба, видео

Печатать
Просмотров: 94


The Netsman and the LairdEmail:  neil@neilandruth.co.uk

h   - hammer on
p   - pull off
b   - bend string up
r   - release bend
/   - slide up
   - slide down
(h) - harmonic

Notes:

This is one of my absolute favourite Adrian legg tunes. Note that the visual length of the bars as shown in the ASCI Tab doesn't reflect the actual length of the bars on the recording - see the time codes noted above the score lines for details. Please do e-mail me if you have any tweaks or if I can be of any assistance.


THE NETSMAN AND THE LAIRD
=========================

INTRO
1. 0:00
D--|-------------------------------12(h)---|-0-10-7h9h10-7-9-5-7-4p0-5-7p4p0-2-|
A--|-------------------------12(h)---------|-----------------------------------|
F#-|-------------------12(h)-------------*-|-----------------------------------|
D--|-------------12(h)---------------------|-----------------------------------|
A--|-------12(h)---------------------------|-----------------------------------|
D--|-12(h)---------------------------------|-----------------------------------|

* Tune 3rd string 1/2 step up to G with tuning peg

2.
D--|-------------------------------12(h)---|-0-10-7h9h10-7-9-5-7-4p0-5-7p4p0-2-|
A--|-------------------------12(h)---------|-----------------------------------|
G--|-------------------12(h)-------------*-|-----------------------------------|
D--|-------------12(h)---------------------|-----------------------------------|
A--|-------12(h)---------------------------|-----------------------------------|
D--|-12(h)---------------------------------|-----------------------------------|

* Tune 3rd string 1/2 step down to F# with tuning peg

3.
D--|-------------------------------12(h)---|-0-14-10h12h14-10-12-9p0---7-5h7p5p4-5h7p5p4-5p4-|
A--|-------------------------12(h)---------|-------------------------------------------------|
F#-|-------------------12(h)-------------*-|-------------------------------------------------|
D--|-------------12(h)---------------------|-------------------------------------------------|
A--|-------12(h)---------------------------|-------------------------------------------------|
D--|-12(h)---------------------------------|-------------------------0-----------------------|

* Tune 3rd string 1/2 step up to G with tuning peg

4.
D--|-------------------------------12(h)-|-0-4h5h7-4p0-2h3p2p0-2p0-----------|
A--|-------------------------12(h)-------|-------------------------3p0-3/5-5-|
G--|-------------------12(h)-------------|-----------------------------------|
D--|-------------12(h)-------------------|-----------------------------------|
A--|-------12(h)-------------------------|-----------------------------------|
D--|-12(h)-------------------------------|-----------------------------------|

5.
D--|-0-----------|---------------------------------------|
A--|---0---------|---------------------------------------|
G--|-----0-------|---------------------------------------|
D--|-------0-----|-0-10-7h9h10-7-9-5-7-4p0-5-7p4p0-2h4p2-|
A--|---------0---|---------------------------------------|
D--|-----------0-|---------------------------------------|


6.
D--|-0-----------|-----------------------------------|
A--|---0---------|-----------------------------------|
G--|-----0-------|-----------------------------------|
D--|-------0-----|-0-10-7h9h10-7-9-5-7-4p0-5-7p4p0-2-|
A--|---------0---|-----------------------------------|
D--|-----------0-|-----------------------------------|


7.
D--|-0-----------|---------------------------------------------|
A--|---0---------|---------------------------------------------|
G--|-----0-------|---------------------------------------------|
D--|-------0-----|-0-14-10h12h14-10-12-9p0---7-5h7p5p4-5h7p5p4-|
A--|---------0---|---------------------------------------------|
D--|-----------0-|-------------------------0-------------------|

8.
D--|-0-----------|-----------------------------------|-0-----------|
A--|---0---------|-----------------------------------|---0---------|
G--|-----0-------|-----------------------------------|-----0-------|
D--|-------0-----|-0-4h5h7-4p0-2h3p2p0-2p0-----------|-------0-----|
A--|---------0---|-------------------------3p0-3/5-5-|---------0---|
D--|-----------0-|-----------------------------------|-----------0-|

9.
D-|------------|------------|------------|------------|----------|----------|----------|------0-----|
A-|--3-----0---|3/5-----3---|--3-----0---|------------|0---------|0---------|0---------|--------0---|
G-|----0-----0-|----0-----0-|----0-----0-|----0-----0-|----------|----------|----------|----0-----0-|
D-|0-----0-----|0-----0-----|0-----0-----|0-------0---|--4---4h5-|--4---4h5-|--4---2p0-|--0---------|
A-|------------|------------|------------|--5---5-----|--5-5-----|--5-5-----|--5-5-----|3-----------|
D-|------------|------------|------------|------------|----------|----------|----------|------------|

10.
D-|------------|------------|------------|------------|----------|----------|----------|-------------|
A-|--3-----0---|3/5-----3---|--3-----0---|------------|0---------|0---------|0---------|-----0-------|
G-|----0-----0-|----0-----0-|----0-----0-|----0-----0-|----------|----------|----------|----0--0---0-|
D-|0-----0-----|0-----0-----|0-----0-----|0-------0---|--4---4h5-|--4---4h5-|--4---2p0-|--0------0---|
A-|------------|------------|------------|--5---5-----|--5-5-----|--5-5-----|--5-5-----|3------------|
D-|------------|------------|------------|------------|----------|----------|----------|-------------|

11.
D-|-------------|----------------|--------------|--------------|--------------|
A-|------0------|--------0-------|------5-------|------5-------|------0-------|
G-|----0--0---0-|------0---0---0-|----0---0---0-|----0---0---0-|----0---0---0-|
D-|--0------0---|----0-------0---|--0-------0---|--0-------0---|--0-------0---|
A-|2------------|2/5-------------|5-------------|--------------|5-------------|
D-|-------------|----------------|--------------|0-------------|--------------|


12.
D-|--------------|--------------|--------------|---------------|
A-|------0-------|------0-------|------4-------|------2--------|
G-|----0---0---0-|----0---0---0-|----0---0---0-|----0---0---0--|
D-|--0-------0---|--0-------0---|--0-------0---|--0-------0----|
A-|5-------------|5-------------|4-------------|2--------------|
D-|--------------|--------------|--------------|---------------|

13.
D-|------------|------------|------------|-------------|------------|------------|------------|
A-|----0-------|------------|----0-------|-------------|----0-------|------------|----0-------|
G-|------------|------------|------------|-0h2p2-------|------------|------------|------------|
D-|0h2---2p0---|0h2p0-------|0h2---2p0h2-|-------4p2p0-|0h2---2p0---|0h2p0-------|0h2---2p0h2-|
A-|0---------4-|0-----4p2p0-|0-----------|-0-----------|0---------4-|0-----4p2p0-|0-----------|
D-|------------|------------|------------|-------------|------------|------------|------------|

14.
D-|----0------0------0-----0-|----0-----0-----0-----0-|----0-----0-|
A-|--------------------------|------------------------|------------|
G-|--0------0------0-----0---|--0-----0-----0-----0---|--0-----0---|
D-|5------4-----/7-----5-----|4-----2-----------------|------------|
A-|--------------------------|------------5-----4-----|2-----0-----|
D-|--------------------------|------------------------|------------|

15.
D-|--10------------|10/12-----10-----|--10------------|--------------|------------|7----------|
A-|---------12-----|-----------------|---------12-----|--10-----10---|12-9---9h10-|--9---9h10-|
G-|-----0------0---|------0------0---|-----0------0---|-----0------0-|---7-7------|--7-7------|
D-|-------0------0-|--------0------0-|-------0------0-|-------0------|------------|-----------|
A-|----------------|-----------------|----------------|--------------|------------|-----------|
D-|0---------------|0----------------|0---------------|10------------|---0--------|--0--------|

16.
D-|7---------|-------0-----|
A-|--9---7---|0----0---0---|
G-|--7-7---7-|---0-------0-|
D-|----------|-------------|
A-|----------|-------------|
D-|--0-------|10-----------|

17.
D-|--10------------|10/12-----10-----|--10------------|--------------|------------|7----------|
A-|---------12-----|-----------------|---------12-----|--10-----10---|12-9---9h10-|--9---9h10-|
G-|-----0------0---|------0------0---|-----0------0---|-----0------0-|---7-7------|--7-7------|
D-|-------0------0-|--------0------0-|-------0------0-|-------0------|------------|-----------|
A-|----------------|-----------------|----------------|--------------|------------|-----------|
D-|0---------------|0----------------|0---------------|10------------|---0--------|--0--------|

18.
D-|7---------|-------0-----|------0-----|---------0-----|------0-----|------0-----|------0-----|
A-|--9---7---|0----0---0---|----0---0---|-------0---0---|----0---0---|----0---0---|----0---0---|
G-|--7-7---7-|---0-------0-|--0-------0-|-----0-------0-|--0-------0-|--0-------0-|--0-------0-|
D-|----------|-------------|------------|---------------|------------|------------|------------|
A-|----------|-------------|------------|---------------|5-----------|------------|5-----------|
D-|--0-------|10-----------|9-----------|9/12-----------|------------|0-----------|------------|

19.
D-|------0-----|------0-----|5h7-7-7p5p4-|5h7p5p4-----|5h7-7-7p5-7-|10-9p7p5-|
A-|----0---0---|----0---0---|------------|--------7p5-|------------|---------|
G-|--0-------0-|--0-------0-|------------|------------|------------|---------|
D-|------------|------------|0-----------|0-----------|0-----------|0--------|
A-|5-----------|5-----------|------------|------------|------------|---------|
D-|------------|------------|------------|------------|------------|---------|

20.
D-|5h7-7-7p5p4-|5h7p5p4-----|2h4p2p0-----|----0h2p0---|
A-|------------|--------7p5-|--------4p2-|0h3-------3-|
G-|------------|------------|------------|------------|
D-|0-----------|0-----------|0-----------|0-----------|
A-|------------|------------|------------|------------|
D-|------------|------------|------------|------------|

21.
D-|5h7-7-7p5p4-|5h7p5p4-----|5h7-7-7p5-7-|10-/12-|
A-|------------|--------7p5-|------------|-------|
G-|------------|------------|------------|-------|
D-|0-----------|0-----------|0-----------|0------|
A-|------------|------------|------------|-------|
D-|------------|------------|------------|-------|

22.
D-|5h7-7-7p5p4-|5h7p5p4-----|2h4p2p0-----|----0h2p0---|
A-|------------|--------7p5-|--------4p2-|0h3-------3-|
G-|------------|------------|------------|------------|
D-|0-----------|0-----------|0-----------|0-----------|
A-|------------|------------|------------|------------|
D-|------------|------------|------------|------------|

23.
D-|------------|------------|------------|-------------|------------|------------|------------|
A-|----0-------|------------|----0-------|-------------|----0-------|------------|----0-------|
G-|------------|------------|------------|-0h2p2-------|------------|------------|------------|
D-|0h2---2p0---|0h2p0-------|0h2---2p0h2-|-------4p2p0-|0h2---2p0---|0h2p0-------|0h2---2p0h2-|
A-|0---------4-|0-----4p2p0-|0-----------|-0-----------|0---------4-|0-----4p2p0-|0-----------|
D-|------------|------------|------------|-------------|------------|------------|------------|

24.
D-|----0------0------0-----0-|----0-----0-----0-----0-|----0-----0-|
A-|--------------------------|------------------------|------------|
G-|--0------0------0-----0---|--0-----0-----0-----0---|--0-----0---|
D-|5------4-----/7-----5-----|4-----2-----------------|------------|
A-|--------------------------|------------5-----4-----|2-----0-----|
D-|--------------------------|------------------------|------------|

25.
D-|--10------------|10/12-----10-----|--10------------|--------------|------------|7----------|
A-|---------12-----|-----------------|---------12-----|--10-----10---|12-9---9h10-|--9---9h10-|
G-|-----0------0---|------0------0---|-----0------0---|-----0------0-|---7-7------|--7-7------|
D-|-------0------0-|--------0------0-|-------0------0-|-------0------|------------|-----------|
A-|----------------|-----------------|----------------|--------------|------------|-----------|
D-|0---------------|0----------------|0---------------|10------------|---0--------|--0--------|

26.
D-|7---------|-------0-----|
A-|--9---7---|0----0---0---|
G-|--7-7---7-|---0-------0-|
D-|----------|-------------|
A-|----------|-------------|
D-|--0-------|10-----------|


27.
D-|--10------------|10/12-----10-----|--10------------|--------------|------------|7----------|
A-|---------12-----|-----------------|---------12-----|--10-----10---|12-9---9h10-|--9---9h10-|
G-|-----0------0---|------0------0---|-----0------0---|-----0------0-|---7-7------|--7-7------|
D-|-------0------0-|--------0------0-|-------0------0-|-------0------|------------|-----------|
A-|----------------|-----------------|----------------|--------------|------------|-----------|
D-|0---------------|0----------------|0---------------|10------------|---0--------|--0--------|

28.
D-|7---------|-------0-----|------0-----|-------0-----|------0-----|------0-----|------0-----|
A-|--9---7---|0----0---0---|----0---0---|-----0---0---|----0---0---|----0---0---|----0---0---|
G-|--7-7---7-|---0-------0-|--0-------0-|---0-------0-|--0-------0-|--0-------0-|--0-------0-|
D-|----------|-------------|------------|-------------|------------|------------|------------|
A-|----------|-------------|------------|-------------|5-----------|------------|5-----------|
D-|--0-------|10-----------|9-----------|12-----------|------------|0-----------|------------|

29.
D-|------0-----|------0-----|------2-------|-------5-------|------8-------|-------11------11-|
A-|----0---0---|----0---0---|----0---0---0-|-----0---0---0-|----0---0---0-|-----0---0---0----|
G-|--0-------0-|--0-------0-|--0-------0---|---0-------0---|--0-------0---|---0-------0------|
D-|------------|------------|2-------------|-5-------------|8-------------|11----------------|
A-|------------|5-----------|--------------|---------------|--------------|------------------|
D-|0-----------|------------|--------------|---------------|--------------|------------------|

30.
D-|------------------------12(h)-----------7(h)-|------------------------12(h)-----------7(h)-|
A-|------------------12(h)------------7(h)-7(h)-|------------------12(h)------------7(h)-7(h)-|
G-|------------12(h)------------------7(h)------|------------12(h)------------------7(h)------|
D-|------12(h)----------------------------------|------12(h)----------------------------------|
A-|------------------------------7(h)-----------|------------------------------7(h)-----------|
D-|12(h)----------------------------------------|12(h)----------------------------------------|

31.
D-|------------------------12(h)-----------7(h)-|----------------------7(h)-|
A-|------------------12(h)------------7(h)-7(h)-|------------------7(h)-----|
G-|------------12(h)------------------7(h)------|-------------7(h)----------|
D-|------12(h)----------------------------------|--------7(h)---------------|
A-|------------------------------7(h)-----------|----7(h)-------------------|
D-|12(h)----------------------------------------|7(h)-----------------------|

32.
D-|0-----0-|7-----5-4-4h5p4p0-|------0------------------|----------------|-------------|
A-|0h2h3-0-|4b5r4-3-----------|0h2-3--2p0---------------|----------------|2-3-5-7-10-8-|
G-|--------|------------------|-----------2p0-----------|----------------|0-0-0-0-0--0-|
D-|--------|------------------|---------------5p4-4-2p0-|2h3p2p0-0-2p0-0-|-------------|
A-|--------|------------------|----0--0---0---0---------|0-------3-----2-|0-0-0-0-0--0-|
D-|------0-|0-----0-----------|-------------------0-----|----------------|-------------|

33.
D-|0-----0-|7-----5-4-4h5p4p0-|------0----------------0-|------------0---|
A-|0h2h3-0-|4b5r4-3-----------|0h2-3--2p0---------------|0-2-3-5-0---0h5-|
G-|--------|------------------|-----------2p0-----0h2---|0-0-0-0-0-0-----|
D-|--------|------------------|---------------5p4-------|----------------|
A-|--------|------------------|----0--0---0---0---------|0-0-0-0-0-------|
D-|------0-|0-----0-----------|-------------------0-----|------------0---|

34.
D-|7-9-|9b10-12p10-9-5-|7-4p0-5-7-|4-4p2p0-2---|------|
A-|----|---------------|------5---|----------3-|0-2-3-|
G-|----|---------------|----------|------------|0-0-0-|
D-|----|---------------|----------|------------|------|
A-|----|---------------|----------|------------|0-0-0-|
D-|----|0----------0---|0-----5---|0-------0---|------|

35.
D-|7-9-|9b10-12p10-9-5-|7-4p0-5-7-|4-4p2p0---2p0-|0-|
A-|----|---------------|------5---|--------3-----|0-|
G-|----|---------------|----------|--------------|--|
D-|----|---------------|----------|--------------|--|
A-|----|---------------|----------|--------0-----|--|
D-|----|0----------0---|0-----5---|0-------------|0-|


36.
D-|7-9-|9b10r9p7-12-7-9-|9b10r9p7-5-7-9-|9b10r9p7-12-7-9-|7-|
A-|----|----------------|---------------|----------------|7-|
G-|----|----------------|---------------|----------------|--|
D-|----|----------------|---------------|----------------|--|
A-|----|----------------|---------------|----------------|--|
D-|----|0--------0------|0--------5-----|0--------0------|7-|

37.
D-|7-9-|9b10r9p7-12-7-9-|9b10r9p7-5-0-|5-3-3-5-0-0-|
A-|----|----------------|-------------|0-0-0-5-0-0-|
G-|----|----------------|-------------|------------|
D-|----|----------------|-------------|------------|
A-|----|----------------|-------------|------------|
D-|----|0--------0------|0----------0-|3-----5-0-0-|

38.
D-|0-----0-|7-----5-4-4h5p4p0-|------0------------------|----------------|-------------|
A-|0h2h3-0-|4b5r4-3-----------|0h2-3--2p0---------------|----------------|2-3-5-7-10-8-|
G-|--------|------------------|-----------2p0-----------|----------------|0-0-0-0-0--0-|
D-|--------|------------------|---------------5p4-4-2p0-|2h3p2p0-0-2p0-0-|-------------|
A-|--------|------------------|----0--0---0---0---------|0-------3-----2-|0-0-0-0-0--0-|
D-|------0-|0-----0-----------|-------------------0-----|----------------|-------------|

39.
D-|0-----0-|7-----5-4-4h5p4p0-|------0----------------0-|------------0---|-------------------|
A-|0h2h3-0-|4b5r4-3-----------|0h2-3--2p0---------------|0-2-3-5-0---0h5-|0h2h3-5-7-10-8-5-3-|
G-|--------|------------------|-----------2p0-----0h2---|0-0-0-0-0-0-----|------0-0-0--0-0-0-|
D-|--------|------------------|---------------5p4-------|----------------|-----------------0-|
A-|--------|------------------|----0--0---0---0---------|0-0-0-0-0-------|0-----0-0-0--0-0-0-|
D-|------0-|0-----0-----------|-------------------0-----|------------0---|-------------------|

40.
D-|----------------|---------------------|--3-----0---|--3-----0---|
A-|0h2h3-5-8-5-3-5-|0h2h3-5-7-10-7-12-10-|------------|------------|
G-|------0-0-0-0-0-|------0-0-0--0-0--0--|------3-----|3-----3-----|
D-|----------------|---------------------|5---5-----5-|----5-----5-|
A-|0-----0-0-0-0-0-|0-----0-0-0--0-0--0--|------------|------------|
D-|----------------|---------------------|------------|------------|

repeat 34-39

41.
D-|---0---0---0-----0-|---0---0----0-----0-|---0---0---0-----0-|---0---0----0-------0-|
A-|---0---0---0-----0-|---0---0----0-----0-|---0---0---0-----0-|---0---0----0-------0-|
G-|-------------------|--------------------|-------------------|----------------------|
D-|/7---7---0---2h3---|/7---7--/10---3h5---|/7---7---0---2h3---|/7---7--/10---3h5p3---|
A-|-0-----------------|-0------------------|-0-----------------|-0--------------------|
D-|-------------------|--------------------|-------------------|----------------------|

42.
D-|--------0---------0-|-------0---------0-----0-|------------------------12(h)-----------7(h)-|
A-|------0---------0---|------0--------0-----0---|------------------12(h)------------7(h)-7(h)-|
G-|----0---------0-----|----0--------0-----0-----|------------12(h)------------------7(h)------|
D-|3-3-------3-3-------|5-5------5-5-------------|------12(h)----------------------------------|
A-|--------------------|-------------------------|------------------------------7(h)-----------|
D-|3-3-------3-3-------|5-5------5-5-------------|12(h)----------------------------------------|


43.
D-|------------------------12(h)-----------7(h)-|------------------------12(h)-----------7(h)-|
A-|------------------12(h)------------7(h)-7(h)-|------------------12(h)------------7(h)-7(h)-|
G-|------------12(h)------------------7(h)------|------------12(h)------------------7(h)------|
D-|------12(h)----------------------------------|------12(h)----------------------------------|
A-|------------------------------7(h)-----------|------------------------------7(h)-----------|
D-|12(h)----------------------------------------|12(h)----------------------------------------|

43.
D-|-------------------7(h)---|-------------------5(h)-----|
A-|--------------7(h)------*-|--------------5(h)------†---|
G-|---------7(h)-------------|---------5(h)-------------amp;#8710;-|
D-|----7(h)------------------|----5(h)--------------------|
A-|--0-----------------------|--0-------------------------|
D-|0-------------------------|0---------------------------|

* Tune 2nd string 1 step up to B with tuning peg
† Tune 2nd string 1 step down to A with tuning peg
amp;#8710; Tune 3rd string 1/2 step down to F# with tuning peg


Добавлено: 31.08.2013
Другие материалы по этой песне:
  • Аккорды и текст

Страница создана 31.08.2013
http://primanota.ru/adrian-legg/the-netsman-and-the-laird-chords.htm
Привет, Гость.
Предлагаем пройти революционный курс по гитаре.
Подарок от PrimaNota.Ru, забирай!