PrimaNota.ru - самый крупный в мире бесплатный архив песенных текстов, аккордов, табулатур и нот


Adrian Legg - Pieta - таба, видео

Регистрация Запомнить меня
Войти через:  Facebook Google Twitter Vk Yandex Mail.ru

Adrian Legg - Pieta - таба, видео

Печатать
Просмотров: 79
Pieta
by Adrian Legg
 
From the album 'Guitar for Mortals'
 
Tuning:
 EGDGBE (open)  ACGCBE (half-capo at 5th fret - see below)
 
Notes:
1) Adrian uses a half-capo at fret 5 to cover the bottom
 4 strings. This gives a tuning of ACGCBE. I cut a tiny
 piece off a Shubb capo and it still manages to fret the
 strings, even though there is now less tension.
 (If you are careful, you can cut off just enough for this
  purpose, yet leave enough remaining to still be able to
  fret all six strings as normal, though with difficulty).
2) Adrian also uses banjo pegs instead of standard
 tuning pegs. This allows him to do quick, precise tuning
 up and down whilst playing.
3) In the Intro, the bracketed notes are those which Adrian
 de-tunes. In Bar 1 it is down and back up a whole-note.
 In Bar 2, down a whole-note.  In Bar 3 up a whole-note
 (ie. back to B), then in Bar 4 he tunes down to A again.
4 All the notes in the intro (and the very last bar of tab)
 are harmonics, except for the top 2 open strings in bars
 3 and 4.
5) The verse, then, begins in ACGCAE. After a minute or so
 he tunes back to B on the 2nd string. At precisely what
 point I can't say as he doesn't attack the string, and it
 is only really practical if one has the banjo pegs.
 Still, I guess its possible to fit in somewhere without
 disturbing the flow of the piece.
6) As there is a capo at fret 5, open strings on the bottom
 4 strings are numbered 5. On the top 2 strings they are
 numbered 0 when open. It should make sense when you come
 to play it.
7) I have added clock counts above bars to make it easier.
8) My apologies for any mistakes in this transcription.
  I wasn't too strict about fitting it all into bars, so
  don't follow it too religiously; nor have I checked it.
  Obviously, use the recording to assist you.
 
Tab: Nate Witbeck (Utah, USA) - nwitbeck@candlefire.org
     James Calton (Sheffield, England)
     - james_calton@yahoo.com
 
This transcription: James Calton
 
 
Intro
      
|---------------------(7)--|---------------------7------|
|------------------7-------|------------------7----(7)--|
|--------------17----------|--------------17------------|
|----------17--------------|----------17----------------|
|------17------------------|------17--------------------|
|--17----------------------|--17------------------------|
 
 
|---------0----------|---------0------------|
|---12----0---(12)---|---12----0---(12)-----|
|---12---12----12----|---12---12----12------|
|---12---12----12----|---12---12----12------|
|--------12----------|--------12------------|
|--------------------|----------------------|
 
Verse
 $  (0.22)
|----------------------------------0----------------|
|-------------------------------0-----0-------------|
|----------------------------5----------------------|
|-------------------5h7---9--------------9h10p9-----|
|---------5h7h9h10----------------------------------|
|---5h7---------------------------------------------|
 

|-----------0--------------------0------------0------|
|--------0-----0--------------0-----0------0-----0---|
|-----5--------------------5------------5------------|
|--7-------------------------------------------------|
|------------------9-/-12----------------------------|
|----------------------------------------------------|
 

|--------0---------------0-----------0-------------0-|
|-----0-----0---------0-----------0-------------0----|
|--5---------------5-----------5-------------5-------|
|---------------7-----------5------------------------|
|----------------------------------------11----------|
|----------------------------------------------------|
 

|-----------0------------0------------0------------0--|
|--------0------------0------------0------------0-----|
|-----5------------5------------5------------5--------|
|--5------------7------------5-----------10-----------|
|-----------------------------------------------------|
|-----------------------------------------------------|
 

|-----------0------------0------------0------------0--|
|--------0------------0------------0------------0-----|
|-----5------------5------------5------------5--------|
|--9------------7------------5------------7-----------|
|-----------------------------------------------------|
|-----------------------------------------------------|
 

|-----------0-------------0------------0-------------0--|
|--------0-------------0------------0-------------0-----|
|-----5-------------5------------5-------------5--------|
|--5--------------------------5------------14-----------|
|---------------11--------------------------------------|
|-------------------------------------------------------|
 

|------------0------------0------------0-----------0--|
|---------0------------0------------0-----------0-----|
|------5------------5------------5-----------5--------|
|--10------------5------------7-----------5-----------|
|-----------------------------------------------------|
|-----------------------------------------------------|
 

|------------0------------0------------0-------------0--|
|---------0------------0------------0-------------0-----|
|------5------------5------------5-------------5--------|
|----------------5-----------12------------10-----------|
|--11---------------------------------------------------|
|-------------------------------------------------------|
 

|------------------------------0---------------0-----|
|----------------------------0--------------0-----0--|
|--------------------------5-------------5-----------|
|----------9---7-------------------7--7--------------|
|--8---9-----------5h7--9----------------------------|
|----------------------------------------------------|
 

|--------0-------------------------------------------|
|-----0-----0----------------------------------------|
|--5------------9p7p5--------------------------------|
|-----------------------7p5--------------------5--7--|
|-----------------------------9p7p5----7---9---------|
|----------------------------------------------------|
 

|--------0------------0-----------0------------------|
|-----0-----0------0-----0-----0-----0---------------|
|--5------------5-----------5------------9p7p5-------|
|-----------------------------------------------7p5--|
|----------------------------------------------------|
|----------------------------------------------------|
 
                               
                                % To coda
|-----------------------------0------------0--------|
|--------------------------0-----0------0-----0-----|
|-----------------------5------------5--------------|
|-----------------5--7------------------------------|
|--9p7p5---7--9-------------------------------------|
|---------------------------------------------------|
 
  (0.53)
|---------------------------|--2--------2--------3-----|
|--0--------0------------0--|--------------------------|
|--------5------------5-----|--------5-----------------|
|-----5------------5--------|-----5-----------5--------|
|---------------5-----------|--5-----------5-----------|
|---------------------------|--------------------------|
 

|--0--------0---------------|------------------------------|
|---------------------0-----|--2--------3------------3-----|
|--------5---------------5--|--------5------------5--------|
|-----5------------5--------|-----5------------5-----------|
|--5------------5-----------|--5------------5--------------|
|---------------------------|------------------------------|
 

|----------------------------|-----------------------------|
|-----------3-------------3--|--------5----5---/----7------|
|--------5-------------5-----|-----5-------------5---------|
|-----5-------------5--------|--5-------------5------------|
|--5-------------5-----------|-----------------------------|
|----------------------------|-------------5---------------|
 

|----------------------------|----------------------------|
|-----------7-------------7--|-------------9--------10----|
|--------5-------------5-----|--------5----------5--------|
|-----5-------------5--------|-----5----------5-----------|
|--5-------------------------|--5-------------------------|
|----------------5-----------|-------------5--------------|
 

|-----------------------------|-----------------10------------|
|-----------10------------10--|-----------10--------------10--|
|--------5-------------5------|--------5---------------5------|
|-----5-------------5---------|-----5---------------5---------|
|--5--------------------------|--5----------------------------|
|----------------5------------|-----------------5-------------|
 

|----------------0------------|-----------------8-------------|
|-----------10------------10--|-----------10-------------10---|
|--------5-------------5------|--------5--------------5-------|
|-----5-------------5---------|-----5--------------5----------|
|--5--------------------------|--5----------------------------|
|----------------5------------|-----------------5-------------|
 

|-----------------0------------|----------------7-------------|
|-----------10-------------10--|-----------10------------10---|
|--------5--------------5------|--------5-------------5-------|
|-----5--------------5---------|-----5-------------5----------|
|--5---------------------------|--5---------------------------|
|-----------------5------------|----------------5-------------|
 

|-----------------------------|-----------------7-------------|
|-----------10------------10--|-----------10-------------10---|
|--------5-------------5------|--------5--------------5-------|
|-----5-------------5---------|-----5--------------5----------|
|--5--------------------------|--5----------------------------|
|----------------5------------|-----------------5-------------|
 

|------------------------------|------------------|
|-----------10-------------10--|-----------0------|
|--------5--------------5------|--------5---------|
|-----5--------------5---------|-----5------------|
|--5---------------------------|--5---------------|
|-----------------5------------|------------------|
 
   (1.18)
|-----------------------|----------0---------------------0-----|
|-----------------------|-------0-----0---------------0-----0--|
|-----------------------|----5---------------------5-----------|
|------------------5h7--|-9--------------9h10p9p7--------------|
|--------5h7h9h10-------|--------------------------------------|
|--5h7------------------|--------------------------------------|
 

(now tuned up to EGDGBE - somehow!)
|-------------------0-------------0-----------0-----------0---|
|----------------0-------------0-----0-----0-----0-----0------|
|-------------5-------------5-----------5-----------5---------|
|----------5-------------5------------------------------------|
|--9-/-12-----------------------------------------------------|
|-------------------------------------------------------------|
 

|-----------0------------------0------------0------------0----|
|--0-----0------------------0------------0------------0-------|
|-----5-----------5------5------------5------------5----------|
|--------------5------7------------5--------------------------|
|----------------------------------------------11-------------|
|-------------------------------------------------------------|
 

|-----------0------------0------------0-------------0----|
|--------0------------0------------0-------------0-------|
|-----5------------5------------5-------------5----------|
|--5------------7------------5------------10-------------|
|--------------------------------------------------------|
|--------------------------------------------------------|
 

|-----------0-------------0------------0------------0----|
|--------0-------------0------------0------------0-------|
|-----5-------------5------------5------------5----------|
|--9-------------7------------5------------7-------------|
|--------------------------------------------------------|
|--------------------------------------------------------|
 

|-----------0-------------0------------0-------------0---|
|--------0-------------0------------0-------------0------|
|-----5-------------5------------5-------------5---------|
|--5--------------------------5------------14------------|
|---------------11---------------------------------------|
|--------------------------------------------------------|
 

|------------0------------0------------0------------0----|
|---------0------------0------------0------------0-------|
|------5------------5------------5------------5----------|
|--10------------5------------7------------5-------------|
|--------------------------------------------------------|
|--------------------------------------------------------|
 
 
 
|------------0-------------0-------------0-------------------|
|---------0-------------0-------------0----------------------|
|------5-------------5-------------5-------------------------|
|-----------------5-------------7------------5---------9--7--|
|--11-------------------------------------------8--9---------|
|------------------------------------------------------------|
 

|-----------------0----------------0-----------0--------|
|--------------0----------------0-----0-----0-----0-----|
|-----------5----------------5-----------5--------------|
|---------------------7--7------------------------------|
|--5--7--9----------------------------------------------|
|-------------------------------------------------------|
 

|-------------------------------------------0-----------0-----|
|----------------------------------------0-----0-----0-----0--|
|--9p7p5------------------------------5-----------5-----------|
|----------7p5------------------5h7---------------------------|
|----------------9p7p5----7h9---------------------------------|
|-------------------------------------------------------------|
 

|-------------------------------------------0-----------0-----|
|----------------------------------------0-----0-----0-----0--|
|--9p7p5------------------------------5-----------------------|
|----------7p5------------------5h7---------------7-----------|
|----------------9p7p5----7h9---------------------------------|
|-------------------------------------------------------------|
 
   (1.49)
|----0--------0------------0--|--7--------7---------8----|
|----------0------------0-----|--------0-----------------|
|*------5------------5--------|-----5------------5-------|
|*----------------5-----------|---------------5----------|
|-----------------------------|--------------------------|
|----5------------------------|--5-----------------------|
 

|--5--------5---------0-----|--2--------3------------3---|
|--------0---------------0--|--------0------------0------|
|-----5------------5--------|-----5------------5---------|
|---------------5-----------|---------------5------------|
|---------------------------|----------------------------|
|--5------------------------|--5-------------------------|
 

|-----------3------------3--|--2--------3------------3---|
|--------0------------0-----|--------0------------0------|
|-----5------------5--------|-----5------------5---------|
|---------------5-----------|---------------5------------|
|---------------------------|----------------------------|
|--5------------------------|--5-------------------------|
 

|-----------3------------0---|-----------------------------|
|--------0------------0------|---6--------8------------8---|
|-----5------------5--------*|---------5------------5------|
|---------------5-----------*|------5------------5---------|
|----------------------------|---8------------8------------|
|--5-------------------------|-----------------------------|
 

|----------------------------|-----------------------------|
|-----------8-------------6--|--6--------8------------8----|
|--------5-------------5-----|--------5------------5-------|
|-----5-------------5--------|-----5------------5----------|
|--8-------------8-----------|--5------------5-------------|
|----------------------------|-----------------------------|
 

|----------------------------|-----------------------------|
|-----------8-------------6--|--6--------8-------------8---|
|--------5-------------5-----|--------5-------------5------|
|-----5-------------5--------|-----5-------------5---------|
|--5-------------5-----------|-----------------------------|
|----------------------------|--6-------------6------------|
 

|----------------------------|-----------------------------|
|-----------8-------------6--|--6--------8-------------8---|
|--------5-------------5-----|--------5-------------5------|
|-----5-------------5--------|-----5-------------5---------|
|----------------------------|-----------------------------|
|--6-------------6-----------|--5-------------5------------|
 
                                (2.23)
|----------------------------|-----------0----------------|
|-----------8-------------6--|--6------------------6------|
|--------5-------------5-----|--------7---------------7---|
|-----5-------------5--------|-----5------------5---------|
|----------------------------|----------------------------|
|--5-------------5-----------|--7------------7------------|
 

|-----------0---------------|----------------------------|
|--8------------------6-----|--6--------6------------6---|
|--------7---------------7--|--------5------------5------|
|-----5------------5--------|-----5------------5---------|
|---------------------------|--5------------5------------|
|--7------------7-----------|----------------------------|
 

|--------------------------|-----------------------------|
|-----------6-----------6--|--5--------5------------5----|
|--------5-----------5-----|--------5------------5-------|
|-----5-----------5--------|-----5------------5----------|
|--5-----------5-----------|--5------------5-------------|
|--------------------------|-----------------------------|
 

|------------------------|-------------------------------|
|-----------5------------|---4--------4-------------4----|
|--------5------------5--|---------5-------------5-------|
|-----5------------5-----|------5-------------5----------|
|--5------------5--------|---5-------------5-------------|
|------------------------|-------------------------------|
 

|---------------------------|---------------------------|
|-----------4------------4--|--3--------4----------6----|
|--------5------------5-----|--------5------------------|
|-----5------------5--------|-----5-------------5-------|
|--5------------5-----------|--5-------------5----------|
|---------------------------|---------------------------|
 
 (2.37)
|--0--------0------------0--|--7--------7----------8----|
|--------0------------0-----|--------0------------------|
|-----5------------5--------|-----5-------------5-------|
|---------------5-----------|----------------5----------|
|---------------------------|---------------------------|
|--5------------------------|--5------------------------|
 

|--5--------5---------8-------|--10---------12----|
|--------0----------------10--|---------10--------|
|-----5------------5----------|------5------------|
|---------------5-------------|-------------------|
|-----------------------------|-------------------|
|--5--------------------------|--5----------------|
 

|-------------12--|------------12-------------10-----|
|---------10------|--------10--------------8---------|
|-----5-----------|-----5---------------5------------|
|--5--------------|------------------5---------------|
|-----------------|----------------------------------|
|-----------------|--5-------------------------------|
 

|---10--------12----12--------12--|-----------12-----|
|----------8---------------8------|--------8---------|
|-------5---------------5---------|-----5------------|
|-------------------5-------------|------------------|
|---5-----------------------------|--5---------------|
|---------------------------------|------------------|
 

|-----------12--|--10---------12----12---------12----|
|--------8------|---------10---------------10--------|
|-----5---------|------5----------------5------------|
|--5------------|-------------------5----------------|
|---------------|------------------------------------|
|---------------|--5---------------------------------|
 

|------------12-------------10--|--10--------12------|
|--------10--------------8------|---------8----------|
|-----5---------------5---------|------5-------------|
|------------------5------------|--------------------|
|-------------------------------|--5-----------------|
|--5----------------------------|--------------------|
 

|---12--------12--|-----------12-------------15------|
|----------8------|--------8--------------8----------|
|-------5---------|-----5--------------5-------------|
|---5-------------|-----------------5----------------|
|-----------------|--5-------------------------------|
|-----------------|----------------------------------|
 

|---15---------15--------------12--|--12---------10----|
|----------12--------------10------|---------10--------|
|-------5---------------5----------|------5------------|
|--------------------5-------------|-------------------|
|---5------------------------------|--5----------------|
|----------------------------------|-------------------|
 
                  (2.57)  
|-----------8--|-----------8------------8--|--7--------8----|
|--------6-----|--------6------------6-----|--------6-------|
|-----5--------|-----5------------5--------|-----5----------|
|--5-----------|---------------5-----------|----------------|
|--------------|---------------------------|----------------|
|--------------|--5------------------------|--5-------------|
 

|-----------10--|---10--------12-----12--------12-----|
|--------6------|----------8----------------8---------|
|-----5---------|-------5----------------5------------|
|--5------------|--------------------5----------------|
|---------------|---5---------------------------------|
|---------------|-------------------------------------|
 

|------------12-------------12--|---10---------12-----|
|---------8--------------8------|----------10---------|
|------5--------------5---------|-------5-------------|
|------------------5------------|---------------------|
|---5---------------------------|---------------------|
|-------------------------------|---5-----------------|
 

|----12---------12--|------------12-----------------|
|-----------10------|--------10--------------10-----|
|--------5----------|-----5---------------5---------|
|----5--------------|------------------5------------|
|-------------------|-------------------------------|
|-------------------|--5----------------------------|
 

|---15---------15------------|--12---------10------------8---|
|----------12------------12--|---------10-------------6------|
|-------5-------------5------|------5--------------5---------|
|------------------5---------|------------------5------------|
|---5------------------------|--5----------------------------|
|----------------------------|-------------------------------|
 

|---8--------8-------------8--|--7--------8-------------8---|
|---------6-------------6-----|--------6-------------6------|
|------5-------------5--------|-----5-------------5---------|
|-----------------5-----------|----------------5------------|
|-----------------------------|-----------------------------|
|---5-------------------------|--5--------------------------|
 

|-----------8------------8--|-----------8-------------8----|
|--------6------------6-----|--------6-------------6-------|
|-----5------------5--------|-----5-------------5----------|
|---------------5-----------|----------------5-------------|
|--5------------------------|--5---------------------------|
|---------------------------|------------------------------|
 
  (3.15)
|-----------8------------8--|-----------8-------------8----|
|--------0------------0-----|--------0-------------0-------|
|-----5------------5--------|-----5-------------5----------|
|---------------6-----------|----------------6-------------|
|--6------------------------|--6---------------------------|
|---------------------------|------------------------------|
 

|-----------8-------------8--|-----------8-------------8---|
|--------7-------------7-----|--------7-------------7------|
|-----8-------------8--------|-----8-------------8---------|
|----------------7-----------|----------------7------------|
|--5-------------------------|--5--------------------------|
|----------------------------|-----------------------------|
 

|-----------7-------------7--|-----------7-------------7---|
|--------6-------------6-----|--------6-------------6------|
|-----7-------------7--------|-----7-------------7---------|
|----------------6-----------|----------------6------------|
|--5-------------------------|--5--------------------------|
|----------------------------|-----------------------------|
 
    (3.27)
|----0--------0------------0--|--7--------7---------8----|
|----------0------------0-----|--------0-----------------|
|*------5------------5--------|-----7------------8-------|
|*----------------5-----------|---------------5----------|
|-----------------------------|--------------------------|
|----5------------------------|--5-----------------------|
 

|---------------------------|---------------------------------|
|---9--------9----------10--|--12---------12-------------12---|
|---------5-----------------|----------5--------------5-------|
|------9------------10------|------12-------------12----------|
|----------------5----------|------------------5--------------|
|---5-----------------------|--5------------------------------|

 ___________
 |1
 |
|------------------------------|-------------------------------|
|--10---------10------------10-|--10---------10------------10--|
|----------5-------------5-----|----------5-------------5------|
|------10------------10--------|------10------------10---------|
|-----------------5------------|--8--------------8-------------|
|--5---------------------------|-------------------------------|
 

|------------------------------|-------------------------------|
|------------10------------10--|-10---------10-------------10--|
|---------5-------------5------|---------5--------------5------|
|-----10------------10---------|-----10-------------10---------|
|--8-------------8-------------|-9---------------9-------------|
|------------------------------|-------------------------------|
 

|--------------------------------|
|------------10-------------10---|
|---------5--------------5------*|
|-----10-------------10---------*|
|--9--------------9--------------|
|--------------------------------|
 
  __________
  |2
  |
|------------------------------|-------------------------------|
|--13---------13------------13-|--15---------15------------15--|
|----------5-------------5-----|----------5-------------5------|
|------13------------13--------|------15------------15---------|
|-----------------5------------|-----------------5-------------|
|--5---------------------------|--5----------------------------|
 

|-----------------------------|--------------------------------|
|--13---------13-----------13-|--13---------13-------------13--|
|----------5------------5-----|----------5--------------5------|
|------13-----------13--------|------13-------------13---------|
|----------------5------------|--11-------------11-------------|
|--5--------------------------|--------------------------------|
 

|---------------------------------|--------------------|
|-------------13--------------13--|--13---------13-----|
|----------5---------------5------|----------5---------|
|------13--------------13---------|------13------------|
|--11--------------11-------------|--12----------------|
|---------------------------------|--------------------|
 

|-----------------|--------------------------------------|
|-------------13--|---13---------13---------------13-----|
|----------5------|-----------5----------------5---------|
|------13---------|-------13---------------13------------|
|--12-------------|---12---------------12----------------|
|-----------------|--------------------------------------|
 

|-------------------------------|------------------------------|
|--13---------13-------------13-|------------13------------13--|
|----------5--------------5-----|---------5-------------5------|
|------12-------------12--------|-----12------------13---------|
|--12-------------12------------|-12------------12-------------|
|-------------------------------|------------------------------|
 
                    (4.04)
|--------|-------|--------------------------------------|
|--12----|-------|---11---------11---------------11-----|
|--------|-------|----------12---------------12---------|
|--------|-------|-------5----------------5-------------|
|--12----|-------|---12---------------12----------------|
|--------|-------|--------------------------------------|
 

|--------------------------------|--0--------------------------|
|--10---------11-------------11--|-----------11------------10--|
|---------12-------------12------|--------5-------------5------|
|------5--------------5----------|-----5-------------5---------|
|--12-------------12-------------|--5-------------5------------|
|--------------------------------|-----------------------------|
 

|-----------------------|-----------------------------------|
|-----------8-----------|---10---------10--------------10---|
|--------5-----------5--|-----------5---------------5-------|
|-----5-----------5-----|-------10--------------10----------|
|--5-----------5--------|---8----------------8--------------|
|-----------------------|-----------------------------------|
 

|--------------------------------|-----------------------------|
|--------------10-------------10-|--10--------10------------10-|
|--12------12-------------12-----|---------5-------------5-----|
|------10-------------10---------|-----10------------10--------|
|--8---------------8-------------|--9-------------9------------|
|--------------------------------|-----------------------------|
 

|--------------------------------|-----------------------------|
|--------------10------------10--|--10--------10-----------10--|
|--11------11------------11------|---------5------------5------|
|------10------------10----------|------9------------9---------|
|--9--------------9--------------|--9-------------9------------|
|--------------------------------|-----------------------------|
 

|-------------------------------|------------------|--------0--|
|-------------10------------10--|-----------9------|-9---------|
|--11-----11------------11------|-------11-----11--|----11-----|
|------9-------------9----------|----9-------------|-----------|
|--9--------------9-------------|-9----------------|-----------|
|-------------------------------|------------------|-----------|
 
  (4.22)
|---------------------------|-----------------------------|
|--8--------8------------8--|--7--------8------------8----|
|--------9------------9-----|--------9------------9-------|
|-----5------------5--------|-----5------------5----------|
|--9------------9-----------|--9------------9-------------|
|---------------------------|-----------------------------|
 

|--0------------------------|-----------0-------------|
|-----------8------------7--|-------------------------|
|--------5------------5-----|--------5------------5---|
|-----5------------5--------|-----5------------5------|
|---------------------------|-------------------------|
|--5------------5-----------|--5------------5---------|
 

|-------------------------|--0-----------------------|
|--7--------7-------------|-----------7--------------|
|--------5------------5---|--------5------------5----|
|-----7------------7------|-----7------------7-------|
|--5------------5---------|--5------------5----------|
|-------------------------|--------------------------|
 

|----------------------------|--0--------------------------|
|--6--------6------------6---|-----------6------------6----|
|--------7------------7------|--------7------------7-------|
|-----5------------5---------|-----5------------5----------|
|----------------------------|-----------------------------|
|--7------------7------------|--7------------7-------------|
 

|----------------------------|--0--------------------------|
|--8--------8------------6---|-----------6------------6----|
|--------7------------7------|--------7------------7-------|
|-----5------------5---------|-----5------------5----------|
|----------------------------|-----------------------------|
|--7------------7------------|--7------------7-------------|
 

|---------------------------|-----------------------------|
|--6--------6------------6--|-----------6------------5----|
|--------5------------5-----|--------5------------5-------|
|-----5------------5--------|-----5------------5----------|
|--5------------5-----------|--5------------5-------------|
|---------------------------|-----------------------------|
 

|----------------------------|----------------------------|
|--5--------5------------5---|-----------5------------5---|
|--------5------------5------|--------5------------5------|
|-----5------------5---------|-----5------------5---------|
|--5------------5------------|--5------------5------------|
|----------------------------|----------------------------|
 
  (4.44)
|---------------------------|-----------------------------|
|--4--------4------------4--|-----------4------------4----|
|--------5------------5-----|--------5------------5-------|
|-----5------------5--------|-----5------------5----------|
|--5------------5-----------|--5------------5-------------|
|---------------------------|-----------------------------|
 

|------------------------|--7--------7---------8----|
|--3--------4---------6--|--------0-----------------|
|--------5---------------|-----5------------5-------|
|-----5------------5-----|---------------5----------|
|--5------------5--------|--------------------------|
|------------------------|--5-----------------------|
 

|----------------------8------|--10---------12-------------12--|
|--10--------10-----------10--|---------10-------------10------|
|---------5-------------------|------5--------------5----------|
|------5------------5---------|------------------5-------------|
|----------------5------------|--------------------------------|
|--5--------------------------|--5-----------------------------|
 

|------------12-----------|--10--------12----12--------12----|
|--------10------------8--|---------8---------------8--------|
|-----5-------------5-----|------5---------------5-----------|
|----------------5--------|------------------5---------------|
|-------------------------|--5-------------------------------|
|--5----------------------|----------------------------------|
 

|-----------12------------|---10---------12---12---------12---|
|--------8-------------8--|----------10--------------10-------|
|-----5-------------5-----|-------5---------------5-----------|
|----------------5--------|-------------------5---------------|
|--5----------------------|-----------------------------------|
|-------------------------|---5-------------------------------|
 

|------------12---------10--|--10--------12-------------12---|
|--------10-----------------|---------8--------------8-------|
|-----5--------------5------|------5--------------5----------|
|-----------------5---------|------------------5-------------|
|---------------------------|--5-----------------------------|
|--5------------------------|--------------------------------|
 

|-----------12------------|--15---------15---------------|
|--------8-------------8--|---------12-------------12----|
|-----5-------------5-----|------5--------------5--------|
|----------------5--------|------------------5-----------|
|--5----------------------|--5---------------------------|
|-------------------------|------------------------------|
 

|---12---------10------------8--|--8--------8------------8---|
|----------10-------------6-----|--------6------------6------|
|-------5--------------5--------|-----5------------5---------|
|-------------------5-----------|---------------5------------|
|---5---------------------------|----------------------------|
|-------------------------------|--5-------------------------|
 

|--7--------8------------10--|--10--------12----12--------12--|
|--------6------------6------|---------8---------------8------|
|-----5------------5---------|------5---------------5---------|
|---------------5------------|------------------5-------------|
|----------------------------|--5-----------------------------|
|--5-------------------------|--------------------------------|
 

|-----------12-----------12--|--10---------12---12---------12--|
|--------8------------8------|---------10--------------10------|
|-----5------------5---------|------5---------------5----------|
|---------------5------------|------------------5--------------|
|--5-------------------------|---------------------------------|
|----------------------------|--5------------------------------|
 
                               (5.17)
|------------12------------|---17---------17---------------|
|--------10------------10--|----------15-------------15----|
|-----5-------------5------|-------5--------------5--------|
|----------------5---------|-------------------5-----------|
|--------------------------|---5---------------------------|
|--5-----------------------|-------------------------------|
 

|--12---------12------------15--|--15---------15---------10---|
|---------10------------10------|---------12---------12-------|
|------5-------------5----------|------5----------5-----------|
|-----------------5-------------|-----------------------------|
|--5----------------------------|--5--------------------------|
|-------------------------------|-----------------------------|
 

|--10--------10----------10--|--10---------12---12---------12--|
|---------8-----------8------|---------10--------------10------|
|------5-----------5---------|------5---------------5----------|
|---------------5------------|------------------5--------------|
|--5-------------------------|---------------------------------|
|----------------------------|--5------------------------------|
 

|------------12------------10--|--10--------10---12--------12--|
|--------10------------10------|---------8--------------8------|
|-----5-------------5----------|------5--------------5---------|
|----------------5-------------|-----------------5-------------|
|------------------------------|--5----------------------------|
|--5---------------------------|-------------------------------|
 
                                (5.30)
|-----------12-----------12--|--17---------17--------------|
|--------8------------8------|---------15-------------15---|
|-----5------------5---------|------5--------------5-------|
|---------------5------------|------------------5----------|
|--5-------------------------|--5--------------------------|
|----------------------------|-----------------------------|
 

|--19---------19------------|--12---------12------------15---|
|---------17------------17--|---------10------------10-------|
|------5-------------5------|------5-------------5-----------|
|-----------------5---------|-----------------5--------------|
|--5------------------------|--5-----------------------------|
|---------------------------|--------------------------------|
 

|--15---------15-----------10-|--10---------12---12---------12-|
|---------12-----------12-----|---------10--------------10-----|
|------5------------5---------|------5---------------5---------|
|----------------5------------|------------------5-------------|
|--5--------------------------|--------------------------------|
|-----------------------------|--5-----------------------------|
 

|------------12------------12--|------------12------------10--|
|--------10------------10------|--------10------------10------|
|-----5-------------5----------|-----5-------------5----------|
|----------------5-------------|----------------5-------------|
|------------------------------|------------------------------|
|--5---------------------------|--5---------------------------|
 

|--10--------12---12--------12--|-----------12----------------|
|---------8--------------8------|--------8---------------0----|
|------5--------------5---------|-----5---------------5-------|
|-----------------5-------------|------------------5----------|
|--5----------------------------|--5------------5-------------|
|-------------------------------|-----------------------------|
 

DS. al coda

Coda
|----12-----------|
|---(12)----------|   Bracketed note tuned down to A then
|----12-----------|   back to B
|----12-----------|
|----12-----------|
|----12-----------|
 

________________________________________________________________________________
     
Добавлено: 15.10.2013
Другие материалы по этой песне:
  • Аккорды и текст

Страница создана 15.10.2013
http://primanota.ru/adrian-legg/pieta-chords.htm
Привет, Гость.
Предлагаем пройти революционный курс по гитаре.
Подарок от PrimaNota.Ru, забирай!