PrimaNota.ru - самый крупный в мире бесплатный архив песенных текстов, аккордов, табулатур и нот


Adrian Legg - My Blackbird Sings All Night - таба, видео

Регистрация Запомнить меня
Войти через:  Facebook Google Twitter Vk Yandex Mail.ru

Adrian Legg - My Blackbird Sings All Night - таба, видео

Печатать
Просмотров: 106
My Blackbird Sings All Night
by Adrian Legg
 
From his latest album 'Inheritance'.
 
Tuning: CGCGCE (Open C)
 
Capo: 2nd fret
 
I've divided this into bars of 2 beats although I haven't
bothered to figure out the time signature for definite.
I tabbed this piece by beginning with the melody then adding the bass
notes afterwards. The bass notes were a little difficult
to hear so sometimes I added them where I thought they fit best.
In bars 58 - 64 where Adrian picks really fast I just had to
guess where they went. Thus, there may be a few mistakes there.
I think overall, though, my tab is quite accurate. 
Thanks and Good Luck!
Tab by James Calton (james_calton@yahoo.com)

1
|-------------|---------------------|--------------------------|
|-------------|---------------------|-------------------0------|
|-------------|---------------------|-------0------0h2-----2---|
|-------0-----|--2p0-------0--2p0---|--2/4-----4---------------|
|--0h2-----2--|-------2p0-----------|--------------------------|
|-------------|------------0--------|--0-----------0-----------|

4
|-------------------|-------0-----3p0------|--5p0-----3p0------|
|-2p0-------0--2p0--|--2/4-----4-------4---|-------4-------4---|
|-----2p0-----------|----------------------|-------------------|
|-------------------|----------------------|-------------------|
|-------------------|----------------------|-------------------|
|-0---------0-------|--0----------0--------|--0-------0--------|

7
|------0-------------|---------------------|-------------------|
|-2h4-----4p2p0------|--0---------2p0------|------0-----2p0----|
|----------------2p0-|-----0h2p0-------2p0-|-0h2-----2-------2-|
|--------------------|---------------------|-------------------|
|--------------------|---------------------|-0h2--------2------|
|-0---------0--------|--0---------0--------|-------------------|

10
|-------0-------------|-----------------|-------0--------------|
|--0h2-----0h2p0------|--0---------0--0-|--2/4-----3p2p0-------|
|-----------------2p0-|-----0h2p0-------|-----------------2p0--|
|---------------------|-----------------|----------------------|
|--2---------2--------|--0--------------|----------------------|
|---------------------|------------0----|--0-------------------|

13
|--------------------|-------0-------------|-------------------|
|-------0-----2p0----|--0h2-----0h2p0------|--0---------0--0---|
|--0h2-----2-------2-|-----------------2p0-|-----0h2p0---------|
|--------------------|---------------------|-------------------|
|--0h2--------2------|--2---------2--------|--0---------0------|
|--------------------|---------------------|-------------------|

16
|------0-----3p0----|--5p0-----3p0------|-------0-----3p0------|
|-2/4-----4-------4-|-------4-------4---|--2/4-----4------4p0--|
|-------------------|-------------------|----------------------|
|-------------------|-------------------|----------------------|
|-------------------|-------------------|----------------------|
|-0----------0------|--0-------0--------|--0----------0--------|

19
|---------------------|-------0--------------|-----------------|
|-------0-----2p0-----|--0h2-----0h2p0-------|--0---------0--0-|
|--0h2-----2-------2--|-----------------2p0--|-----0h2p0-------|
|---------------------|----------------------|-----------------|
|--0h2--------2-------|--2---------2---------|--0---------0----|
|---------------------|----------------------|-----------------|

22
|------0-----3p0------|-------------------|------0-----3p0-----|
|-2/4-----4-------4p0-|------0-----2p0----|-2/4-----4------4p0-|
|---------------------|-0h2-----2-------2-|--------------------|
|---------------------|-------------------|--------------------|
|---------------------|-0h2--------2------|--------------------|
|-0----------0--------|-------------------|-0----------0-------|

25
|-------------------|-------0-----3p0--------|-----------0---|
|--0---------0--0---|--2/4-----4-------4p0---|-----2--2------|
|-----0h2p0---------|------------------------|---------------|
|-------------------|------------------------|---------------|
|--0----------------|------------------------|--0-----0------|
|------------0------|--0----------0----------|---------------|

28
|--1p0-------------|-----------0-|--1p0-----3--3-|-----------0-|
|-------2p0--------|-----2--2----|-------2-----2-|-----2--2----|
|------------4p2p0-|-------------|-------------0-|-------------|
|------------------|-------------|---------------|-------------|
|--0---------0-----|--0-----0----|--0-------0----|--0-----0----|
|------------------|-------------|---------------|-------------|

32
|--1p0---------------|-----------0---|--1p0--------0---|
|-------2p0----------|-----2--2------|-------2-----2---|
|------------4p2p0---|---------------|-------------0---|
|--------------------|---------------|-----------------|
|--0---------0-------|--0-----0------|--0-------0------|
|--------------------|---------------|-----------------|

repeat bars 1 - 4, then bars 16 - 21

42
|-------0---------------|----------------------|
|--2/4-----3p2p0--------|-------0-----2p0------|
|-----------------2p0---|--0h2-----2-------2---|
|-----------------------|----------------------|
|-----------------------|--0h2--------2--------|
|--0--------------------|----------------------|

44
|-------0-------------|-------------------|
|--2/4-----2p0--------|--0---------0--0---|
|---------------2p0---|-----0h2p0---------|
|---------------------|-------------------|
|----------0----------|-------------------|
|---------------------|--0---------0------|

repeat bars 16 - 21, then:

50
|---------0----------------|
|--2-/-4-----4p2p0---------|
|--------------------2p0---|
|--------------------------|
|--------------------------|
|--0-----------------------|

repeat bars 27 - 34, then:

58
|--8p7p5-----5-------0--------|----------------|
|---------7-----7p5--------0--|----------------|
|-----------------------7-----|----------------|
|-----------------------------|--9p7-----0--0--|
|-----------------------------|-------9-----9--|
|---------0----------0--------|----0-----------|

60
|---------------------0-----0---|------------|
|--------------0h2h4-----4------|--4p2---2---|
|---------0h2-------------------|------------|
|--0h2h4------------------------|------------|
|----------------0--------------|--0-----0---|
|------0------------------------|------------|

repeat bars 58 - 9

64
|---------------------0-----0---|--------------|
|--------------0h2h4-----4------|--4p0--2--0---|
|---------0h2-------------------|--------------|
|--0h2h4------------------------|--------------|
|----------------0--------------|--0-------0---|
|------0------------------------|--------------|

repeat bars 58 - 65, then bars 1 - 6, 5 - 6, 18 - 21, then:

84
|---------0-------------|----------------------|
|--2-/-4-----2p0--------|-------0-----2p0------|
|-----------------2p0---|--0h2-----2-------2---|
|-----------------------|----------------------|
|-----------------------|--0h2--------2--------|
|--0--------------------|----------------------|

86
|-------0---------------|-------------------|
|--0h2-----0h2p0--------|--0---------0--0---|
|-----------------2p0---|-----0h2p0---------|
|-----------------------|-------------------|
|--2---------2----------|--0----------------|
|-----------------------|------------0------|

repeat bars 16 - 21

92
|-------0---------------|----------------------|
|--2/4-----4p2p0--------|-------0-----2p0------|
|-----------------2p0---|--0h2-----2-------2---|
|-----------------------|----------------------|
|-----------------------|--0h2--------2--------|
|--0-------0------------|----------------------|
94
|-------0---------------|-------------------|
|--2/4-----4p2p0--------|--0---------0--0---|
|-----------------2p0---|-----0h2p0---------|
|-----------------------|-------------------|
|--0-------0------------|--0----------------|
|-----------------------|------------0------|

96
|-------0-----3p0------|--5p0-----3p0--------|
|--2/4-----4-------4---|-------4-------4p0---|
|----------------------|---------------------|
|----------------------|---------------------|
|-------------0--------|----------0----------|
|--0-------------------|--0------------------|

repeat bars 27 - 34, then 1 - 4, 16 - 21 adding the following
bar after bar 18:

111
|-----------------------|
|--2p0-------0----------|
|-------2p0-----0h2p0---|
|-----------------------|
|--0--------------------|
|------------0----------|   then:

114
|------0--------------|------------------|-------0-------------|
|-2/4-----3p2p0-------|-------0-----2p0--|--0h2-----0h2p0------|
|----------------2p0--|--0h2-----2-------|-----------------2p0-|
|---------------------|------------------|---------------------|
|---------------------|--0h2--------2----|--2---------2--------|
|-0-------------------|------------------|---------------------|

117
|----------------|-------0-----3p0--------|--------------------|
|-0-------0--0---|--2/4-----4-------4p0---|-------0-----2p0----|
|----0h2---------|------------------------|--0h2-----2-------2-|
|----------------|------------------------|--------------------|
|-0--------------|-------------0----------|--0h2--------2------|
|---------0------|--0---------------------|--------------------|

120
|-------0---------------|-------------------|
|--2/4-----4\2p0--------|--0---------0--0---|
|-----------------2p0---|-----0h2p0---------|
|-----------------------|-------------------|
|--0-------0------------|-------------------|
|-----------------------|--0---------0------|

122
|-------0-----3p0--------|
|--2/4-----4-------4p0---|
|------------------------|
|------------------------|
|------------------------|
|--0----------0----------|

repeat bars 27 - 34, then repeat bars 58 - 64 four times,
then finish with harmonics on 12th fret(from capo).

James Calton; Sheffield, England; 2004.
 

________________________________________________________________________________
     
Добавлено: 15.11.2013
Другие материалы по этой песне:
  • Аккорды и текст

Страница создана 10.11.2013
http://primanota.ru/adrian-legg/my-blackbird-sings-all-night-chords.htm
Привет, Гость.
Предлагаем пройти революционный курс по гитаре.
Подарок от PrimaNota.Ru, забирай!