PrimaNota.ru - самый крупный в мире бесплатный архив песенных текстов, аккордов, табулатур и нот


Adrian Legg - La Giga Anziana - таба

Регистрация Запомнить меня
Войти через:  Facebook Google Twitter Vk Yandex Mail.ru

Adrian Legg - La Giga Anziana - таба

Печатать
Просмотров: 81
Artist: Adrian Legg
Title: A Giga Anziana (The Elderly Jig)
Album: Guitar Bones
 
This is a close approximation to the original.
It shouldn't be too difficult to fit to the recording.
Some hammer-ons and pull-offs are actually quite slow
but I have left them as they are to indicate that
the note isn't plucked.
 
Any comments welcome: james_calton@yahoo.com
 
Tuning: DADGAD    No capo
 
h = hammer-on          ha = harmonics
p = pull-off           / = slide up
b = bend               \ = slide down
x = mute string

D|--------------------------------------------------|
A|-----0-----------0-----------0----------0---------|
G|-----0-----------0-----------0----------0---------|
D|-----0---0-------0---0-------0---0------0---0-----|
A|-------------4-----------2-----------0------------|
D|-0----------------------------------------------5-|
 

|---------------------------------------------------|
|--0-----------0----------0----------0-----------0--|
|--0-----------0----------0----------0-----------0--|
|--0---0-------0----------0----------0---0-------0--|
|-----------------------------2--0------------------|
|----------4-------4--2----------------------0------|
 

|---------------------------------------------------|
|-----------0-----------0-----------0-----------0---|
|-----------0-----------0-----------0-----------0---|
|---0-------0---0-------0---0-------0---0-------0---|
|-------4-----------2-----------0-------------------|
|-------------------------------------------5-------|
 

|---------------------------------------------------|
|-----------0-----------0----------0-----------0----|
|-----------0-----------0----------0-----------0----|
|---0-------0---0-------0----------0---0-------0----|
|-------2-----------0-------2--4--------------------|
|------------------------------------------0--------|
 

|---------------------------------------------------|
|-----------0-----------0-----------0-----------0---|
|-----------0-----------0-----------0-----------0---|
|---0-------0---0-------0---0-------0---0-------0---|
|-------4-----------2-----------0-------------------|
|-------------------------------------------5-------|
 

|-------------------------------------------|
|-----------0-----------0-----------0-------|
|-----------0-----------0-----------0-------|
|---0-------0---0-------0---0-------0---0---|
|-------------------------------2-----------|
|-------4-----------2-----------------------|
 

|-------------------------------------------------|
|--------2------2------2--------2------2------2---|
|------0------0------0--------0------0------0-----|
|-----------2------2---------------2------2-------|
|---0----------------------0----------------------|
|-------------------------------------------------|
 

|-------------------------------------------------|
|--------5------5------5--------5------5------5---|
|------0------0------0--------0------0------0-----|
|-----------5------5---------------5------5-------|
|---0----------------------0----------------------|
|-------------------------------------------------|
 

|-------------------7--9---0---ha7---11---7---4---0-|
|-------9------9----9------7---------12---9---5---2-|
|-----0------0------0------0---------11---7---4---0-|
|----------9--------9------7---------12---9---5---2-|
|--0------------------------------------------------|
|---------------------------------------------------|
 
 
|----------------7--9--10p9p7-----0---5--7---4--2p0-|
|-0-2--2h3p2p0-----------------9------5-------------|
|-------------------------------------5-------------|
|---------------------------------------------------|
|---------------------------------------------------|
|----------------0-----0--------------5------0------|
 

|-0h2h4--------------------------7--9--10p9p7-----0-|
|--------0h3------0-2--2h3p2p0-----------------9----|
|--------0------------------------------------------|
|--------0h3----------------------------------------|
|--------------0------------------------------------|
|-0--------------------0---------0-----0------------|
 
|--5--7---4--2p0--2p0--------0-----------------------|
|--5---------------------b4-----------0--2--2h3p2p0--|
|--5-------------------------------------------------|
|----------------------------------------------------|
|-------------------------------0--------------------|
|--5------0------------------------0--------0--------|
 

|--7--9--10p9p7-----0---5--7---4--2p0---0h2h4--------|
|----------------9------5-----------------------0h4--|
|-----------------------5----------------------------|
|-----------------------------------------------0h4--|
|----------------------------------------------------|
|--0-----0--------------5------0--------0------------|
 

|---------------------7--9--10p9p7-----0---5--7---|
|-----0-2--2h3p2p0------------------9------5------|
|------------------------------------------5------|
|-------------------------------------------------|
|--0----------------------------------------------|
|----------0----------0-----0--------------5------|
 

|-4p2p0---2p0------0--------------------2--4--4h5p4p2-|
|--------------b4--------0-2--2h4p2p0-----------------|
|-----------------------------------------------------|
|-----------------------------------------------------|
|---------0-----------0-----------------0-------------|
|-0----------------0----------0---------------0-------|
 
                           roll
|------0--2--------------------------------------------|
|-4h5--------4p2p0--4p2p0-----0---0-------0-2--2h4p2p0-|
|----------------------------0---0---------------------|
|---------------------------3---3----------------------|
|------------0-----------------------------------------|
|------0-------------------3---------x5--------0-------|
                                
                                              roll
|-2--4--4h5p4p2--------0--2----------------------0----|
|----------------4h5---------4p2p0---2p0--------0-----|
|------------------------------------0----1----2------|
|------------------------------------2--------0-------|
|-0--------------------------0------------------------|
|-------0--------------0---------------------4------0-|
 
                    roll                       roll
|-0---------------------0-----0---------------------0-|
|----4p2p0--2p0--------0---------4p2p0--2p0--------0--|
|-----------0----1----2-----------------0----1----2---|
|-----------2--------0------------------2--------0----|
|----0---------------------------0--------------------|
|-------------------4------0--------------------4-----|
 

|--------------------2--4--4h5p4p2---7--7--7------|
|-----0-2--2h4p2p0-------------------------9------|
|-------------------------------------------------|
|------------------------------------------0--0---|
|--0-----------------0---------------0------------|
|----------0---------------0----------------------|
 

|--9---7--7-----4--2--------------------------2--4---|
|--10--9--7-----------4p2p0-----0-2--2h4p2p0---------|
|--0------9------------------------------------------|
|------0---------------------------------------------|
|---------0--0--------0------0-------0--------0------|
|----------------------------------------------------|
 
 
|--4h5p4p2---7--7--7-----9---12p9--7-----7-----4-2---|
|------------------9-----10--10----9-----------------|
|------------------------0---0-----------9-----------|
|------------------0--0------------0--0--------------|
|--0---------0---------------------------0--0--------|
|----------------------------------------------------|
 
                                    roll
|--------------------------------------0-----0--------|
|-4p2p0-----0-2--2h4p2p0---2p0--------0---------4p2p0-|
|--------------------------0----1----2----------------|
|--------------------------2--------0-----------------|
|-0------0-------0------------------------------0-----|
|----------------------------------4------0-----------|
 
           roll                          roll
|--------------0-----0-----------------------0------|
|--2p0--------0---------4p2p0---2p0---------0-------|
|--0----1----2------------------0----1-----2--------|
|--2--------0-------------------2---------0---------|
|-----------------------0-----------------------0---|
|----------4------0----------------------4----------|
 

|-----------------7--9--10p9p7-----0---5--7---4-2p0--|
|--0-2--2h3p2p0-----------------9------5-------------|
|--------------------------------------5-------------|
|----------------------------------------------------|
|----------------------------------------------------|
|-------0---------0-----0--------------5------0------|
 

|-0h2h4---------------------------7--9--10p9p7-----0--|
|---------0h3------0-2--2h3p2p0-----------------9-----|
|---------0-------------------------------------------|
|---------0h3-----------------------------------------|
|---------------0-------------------------------------|
|-0---------------------0---------0-----0-------------|
 

|-5--7--4-2p0--2p0------0------------------------------|
|-5-----------------b4---------------------------------|
|-5--------------------------0--0-0-----0--2-4-5p4p2p0-|
|----------------------------0--0-0-----0--------------|
|--------------0-------------0--2h3p2p0-0--------------|
|-5-----0-----------------0----------------------------|
 
 
|-----------------------------------------------------|
|-------------0------0-----0--0-----------------------|
|------0-0h2--0------0-----0--2-------------------2-4-|
|-4-0---------4p2p0--2p0---0--2----------------0------|
|--------------------------2--0--0-2--2h4p2p0---------|
|-----------------------------------------------------|
 

|---------------------------------------------------|
|---------------------------------------------0-2---|
|--5p4p2p0-------0--0h2-----------------------------|
|-----------4-0--0-------4p2p0--2p0-----0-----------|
|------------------------0------0----4--------------|
|------------------------------------------0--------|
 
                                               roll
|----------2-4--4h5p2------0--2------------------------|
|-2h4p2p0--------------b4--------4p2p0--4p2p0----0---0-|
|-----------------------------------------------0---0--|
|----------------------------------------------3---3---|
|-0--------0---------------------0---------------------|
|--------------------------0------------------3--------|
 

|--------------------2-4--4h5p4p2------0--2----------|
|-----0-2--2h4p2p0-----------------b4--------4p2p0---|
|----------------------------------------------------|
|-x5-------------------------------------------------|
|-x0-------0---------0-----------------------0-------|
|-x5----------------------0------------0-------------|
 
           roll                        roll
|--------------0-----0---------------------0-----0---|
|--2p0--------0---------4p2p0--2p0--------0----------|
|--0----1----2-----------------0----1----2-----------|
|--2--------0------------------2--------0------------|
|-----------------------0----------------------------|
|----------4------0--------------------4------0------|
 
                  roll
|---------------------------------------2-4--4h5p4p2-|
|-4p2p0--2p0--------0-----0-2--2h4p2p0---------------|
|--------0----1----2---------------------------------|
|--------2--------0----------------------------------|
|-0--------------------0-------0--------0----0-------|
|----------------4-----------------------------------|
 

|--7--7--7--9---7--7-----4-2-------------------------|
|--------9--10--9--7----------4p2p0-----0-2--2h4p2p0-|
|-----------0------9---------------------------------|
|--------0------0------------------------------------|
|--0---------------0--0-------0------0-------0-------|
|----------------------------------------------------|
 
 
|--2-4--4h5p4p2---7--7--7--9---12p9--7-----7-----4-2-|
|-----------------------9--10--10----9-----7---------|
|--------------------------0---0-----------9---------|
|-----------------------0------------0--0------------|
|--0----0----------------------------------0--0------|
|----------------------------------------------------|
 
                                    roll
|-------------------------------------0-----0--------|
|-4p2p0-----0-2--2h4p2p0--2p0--------0---------4p2p0-|
|-------------------------0----1----2----------------|
|-------------------------2--------0-----------------|
|-0------0-------0-----------------------------0-----|
|---------------------------------4------0-----------|
 
           roll                        roll
|--------------0-----0---------------------0---------|
|--2p0--------0---------4p2p0--2p0--------0------0-2-|
|--0----1----2-----------------0----1----2-----------|
|--2--------0------------------2--------0------------|
|-----------------------0---------------------0------|
|----------4------0--------------------4-------------|
 

|------------7--9--10p9p7-----0---5--7--4p2p0--0h2h4-|
|--2h3p2p0-----------------9------5------------------|
|---------------------------------5------------------|
|----------------------------------------------------|
|----------------------------------------------------|
|--0---------0-----0--------------5-----0------0-----|
 

|------------------------7--9--10p9p7-----0--5--7---|
|--0h3-----0-2--2h3p2p0----------------9-----5------|
|--0-----------------------------------------5------|
|--0h3----------------------------------------------|
|-------0-------------------------------------------|
|---------------0--------0-----0-------------5------|
 

|--4p2p0--2p0-------0--------------------------------|
|--------------b-4----------------0-----------0------|
|---------------------------------0-----------0------|
|--------------------------0------0---0-------0---0--|
|---------0-------------------4-----------2----------|
|--0----------------0---0----------------------------|
 
 
|--------------------------------------------------|
|------0-----------0-----------0-----------0-------|
|------0-----------0-----------0-----------0-------|
|------0---0-------0---0-------0---0-------0---0---|
|--0-----------------------------------------------|
|--------------5-----------4-----------2-----------|
 

|--------------------------------------------------|
|------0-----------0-----------0-----------0-------|
|------0-----------0-----------0-----------0-------|
|------0---0-------0---0-------0---0-------0---0---|
|--0-----------------------4-----------2-----------|
|--------------0-----------------------------------|
 

|--------------------------------------------------|
|------0-----------0-----------0-----------0-------|
|------0-----------0-----------0-----------0-------|
|------0---0-------0-----------0---0-------0-------|
|--0-------------------0---2-----------0-------2---|
|--------------5-----------------------------------|
 

|--------------------------------------------------|
|------0-----------0-----------0-----------0-------|
|------0-----------0-----------0-----------0-------|
|------0---0-------0---0-------0---0-------0---0---|
|--4-----------------------4-----------2-----------|
|--------------0-----------------------------------|
 
 
|--------------------------------------------------|
|------0-----------0-----------0-----------0-------|
|------0-----------0-----------0-----------0-------|
|------0---0-------0---0-------0-----------0---0---|
|--0-----------------------------------------------|
|--------------5-----------4-------4-\-2-----------|
 

|------------------------------------------------|
|------0--------2------2------2--------2------2--|
|------0------0------0------0--------0------0----|
|------0-----------2------2---------------2------|
|--2-------0----------------------0--------------|
|------------------------------------------------|
 

|-----------------------------------------------|
|------2-------5------5------5--------5------5--|
|----0-------0------0------0--------0------0----|
|--2--------------5------5---------------5------|
|---------0----------------------0--------------|
|-----------------------------------------------|
 
 
|-----------------------7--9--0--ha7--11--7--4--0--|
|-----5-------9------9--9-----7-------12--9--5--2--|
|---0-------0------0----0-----0-------11--7--4--0--|
|-5--------------9------9-----7-------12--9--5--2--|
|--------0-----------------------------------------|
|--------------------------------------------------|
 

|-0------------------------------------------------|
|---0------------------------------0---------------|
|-----0----------------------6--4--2p0-------------|
|-------4--2h4p2p0-----0-----7--5--4----2--0-----0-|
|-------------------4-----0-------------------4----|
|--------------------------------------------------|
 

|---------------7---|
|---------------7---|
|---------------7---|
|---------------0---|
|-----4--5----------|
|--0---------0------|
 
JC, Sheffield, England, 2004.
 

________________________________________________________________________________
     
Добавлено: 17.07.2013
Другие материалы по этой песне:
  • Аккорды и текст

Страница создана 17.07.2013
http://primanota.ru/adrian-legg/la-giga-anziana-chords.htm
Привет, Гость.
Предлагаем пройти революционный курс по гитаре.
Подарок от PrimaNota.Ru, забирай!